Oops, an error
Loading. Please wait.

Good Bass Tab

version 1
version 1

Whole song

Interactive

18,193 views 51 this week
4 commentsread comments
1 2 3 4 5
accurate
x 11
add to favorites
launch autoscroll
font size
0
reset
guitar tuner
Tab Pro tools
  • play this tab
  • loop segment
  • change instrument
  • show fretboard
  • metronome
×
Best way to learn
"Good"
Autoscroll
slow
fast
+/-
esc
set tempo
stop
#----------------------------------PLEASE NOTE---------------------------------#
#This file is the author's own work and represents their interpretation of the #
#song. You may only use this file for private study, scholarship, or research. #
#------------------------------------------------------------------------------##
Date: Sat, 26 Aug 1995 22:57:33 -0500 (CDT)
From: Mike Farmer 
Subject: Corrected bassline for Better than Ezra's song Good

Here is the corrected version of the bass ab for Better than Ezra's song, 
Good.  A five string is not needed.  I had the song too low and it needs to
be moved up a step.  In other words, instead of playing F C D Ab, you 
play  G D E C.  The tab is:
A---------5-5-5-5---------3-3-3-2
E-3-3-3-3---------0-0-0-0--------
As you can see there is also a drop down to a B at the end.  Thanks to 
Kevin and others who sent letters correcting these mistakes.  Keep 
comments coming to mfarmer@mail.coin.missouri.edu




From judy letostak Sept 95
Better Than Ezra - Good
from Deluxe


|-------------------------|------------------------||-------------------
|-------------------------|------------------------||-------------------
|--------------5--5--5--5-|-------------3--3--3--2-||o--------------5--5
|--3--3--3--3-------------|-0--0--0--0-------------||o--3--3--3--3------
|-------------------------|------------------------||-------------------
                                                                        
                                     1st verse                          
-------|-------------------------||----------------------------|--------
-------|-------------------------||----------------------------|--------
-5--5--|-------------3--3--3--2-o||o----------------5--5--5--5-|--------
-------|-0--0--0--0-------------o||o----3--3--3--3-------------|-0--0--0
-------|-------------------------||----------------------------|--------
                                                                        
                     Chorus                                             
------------------||---------------------------|-------------------------||
------------------||---------------------------|-------------------------||
-----3--3--3--2--o||o---------------5--5--5--5-|-------------3--3--3--2-o||
--0--------------o||o---3--3--3--3-------------|-0--0--0--0-------------o||
------------------||---------------------------|-------------------------||
                                                                        
|------------------------|-------------------------||-------------------
|------------------------|-------------------------||-------------------
|-------------5--5--5--5-|-------------3--3--3--2--||o--------------5--5
|-3--3--3--3-------------|-0--0--0--0--------------||o--3--3--3--3------
|------------------------|-------------------------||-------------------
                                                                        
--------|--------------------------||
--------|--------------------------||
--5--5--|-------------3--3--3--2--o||
--------|-0--0--0--0--------------o||
--------|--------------------------||
                                                                        
   2nd Verse                                                            
||----------------------------|-------------------------||--------------
||----------------------------|-------------------------||--------------
||o---------------5--5--5--5--|-------------3--3--3--2-o||-------------5
||o---3--3--3--3--------------|-0--0--0--0-------------o||-3--3--3--3---
||----------------------------|-------------------------||--------------
                                                                        
                                                                        
-----------|------------------------|-------------------------|
-----------|------------------------|-------------------------|
--5--5--5--|----------2/3--2--0--2--|----------2--3--2--0--2--|
-----------|-0--0--0----------------|-0--2--3-----------------|
-----------|------------------------|-------------------------|
                                                                        
    Guitar Solo                   1.2.3                                  
||----------------------------|--------------------------||
||----------------------------|--------------------------||
||o---------------------------|-------------------------o||
||o---5--5--5--5--------------|-2--2--2-----------3--4--o||
||----------------5--5--5--5--|----------2--3--3---------||
                                                                        
4.                                                                      

|--------------------------|
|--------------------2--4--|
|-----------2--3--5--------|
|--2--3--5-----------------|
|--------------------------|
                                                                        

 Out Chorus                                                             
||------------------------|------------------------||
||------------------------|------------------------||
||-------------5--5--5--5-|-------------3--3--3--2-||
||-3--3--3--3-------------|-0--0--0--0-------------||
||------------------------|------------------------||
                                                                        
                                                                        
|-------------------------|-------------------------|------------------|
|-------------------------|-------------------------|------------------|
|-------------5--5--5--5--|-------------3--2--0--2--|------------------|
|-3--3--3--3--------------|-0--0--0--0--------------|------------------|
|-------------------------|-------------------------|--3---------------|
                                                                        
                                                                        
=======================================================================
h = hammeron                    Judy Letostak                         
p = pulloff                     Internet letostak@ix.netcom.com
/\ = slide                      Fidonet 1:202/762                     
x = ghost note                  MetalNet 182:100/2                    
t = tap (right hand)            The Music Shop BBS (619)423-4970 24hrs
~ = vibrato                     * = picked harmonic
bf = bend full                  tr = trill
rb = release bend               p.s. = pick scrape
dive = dive with bar            b = bend / step written over note
========================================================================
The Music Shop BBS (619)423-4970  24hrs
Guitar Tab, Bass Tab, Lyrics, Sound Files, Pictures, BRE...LORD...FidoNet...
MetalNet...In a band?  Want some exposure?  I have a file area for bands
will take anything that can be put on a computer...Lyrics, pictures, sound
files, gig ads...email me or call my bbs.  It's free, and access is free.
Also have a menu for band to put up Biographies, reviews of shows, demos,
gig advertisements, and you can sell your demo/CD here as well...And it's
absolutely FREE!

comments
print report bad tab
4 comments total. Showing first comments.
+1 reply
im-a-bassplayer wrote on January 4 2008, 06:11 am

thanks for correcting it 'cause when i first played the original i knew right away it was wrong.THANK YOU!!

+1 reply
Big_T_Foot wrote on February 19 2008, 08:19 pm

Great tab, thanks for putting it up!

0 reply
GaurPower wrote on December 23 2008, 03:12 am

Thanks for doing this man! I appreciate it. Gotta love Better than Ezra

I want to post or [tab]
guest
You may want to rate the tab now too:
select rating
Please do not post tabs as comments. Select "correction" instead!