Oops, an error
Loading. Please wait.

Good Tab

version 5
version 5

Interactive

Video

9,743 views 1 this week
no commentswrite comment
1 2 3 4 5
accurate
x 7
add to favorites
launch autoscroll
font size
0
reset
how to read this tab
guitar tuner
Tab Pro tools
  • play this tab
  • loop segment
  • change instrument
  • show fretboard
  • metronome
×
Best way to learn
"Good"
Autoscroll
slow
fast
+/-
esc
set tempo
stop
Contributor
================================================================
                      Good - Better Than Ezra
================================================================
                 As recorded by Better Than Ezra
                  (From the 1996 Album Deluxe)

Words and Music by Better Than Ezra


Tuning: (E A D G B e) - 'Standard Tuning'


Legend
. = Palm Mute
b = Bend

Intro/Chorus

e----------------------------------------------------|
B----------------------------------------------------|
G-------------7---7--7---9---9--9--------9---9---9---|
D--5---5--5---7---7--7---9---9--9---10--10--10--10---| x2
A--5---5--5---5---5--5---7---7--7---10--10--10--10---|
E--3---3--3--------------------------8---8---8---8---|


Verse (2x):

(Bass Guitar)
G--------------------------------------------|
D--------------------------------------------|
A------------5--5--5--5-------------3-3-3-3--|x4
E--3-3-3-3---------------0-0-0-0-------------| 

After Bass plays that 2 times guitar plays this:

e--------------|
B--------------|
G---9---9---9--|
D--10--10--10--|
A--10--10--10--|
E---8---8---8--|


Then Intro/Chorus


Then Verse (This time only once)


Then Intro/Chorus (This time x4)


Then Verse 2:


e----------------------------------------------------------|
B--12---12--12---10---10--10---12---12--12---13---13--13---|
G--12---12--12---11---11--11---12---12--12---12---12--12---|
D----------------------------------------------------------| x2
A----------------------------------------------------------|
E----------------------------------------------------------|
         .   .         .   .         .   .         .   .


e-------------------------------------------------|
B-------------0--1-----0-----------------0-----0--|
G----------0-----------------0-----0--2-----2-----|
D-------------------------------------------------|
A-------------------------------------------------|
E-------------------------------------------------|


e--3----------------------------------------------|
B--3----------0--1-----0-----------------0-----0--|
G----------0-----------------0-----0--2-----2-----|
D-------------------------------------------------| <-- Repeat that part x3
A-------------------------------------------------|
E-------------------------------------------------|


e---------------------------------------------------|
B---------------------------------------------------|
G-------------7--7--7-7----9--9--9---------9---9----|
D--5--5--5----7--7--7-7----9--9--9----10--10--10----| x4
A--5--5--5----5--5--5-5----7--7--7----10--10--10----|
E--3--3--3-----------------------------8---8---8----|
   .  .       .  .         .  .        .   .


Then Intro/Chorus (This time x4)


Then Solo: (Rhythm guitar plays Chorus/Intro)

e---------------------------------------------------------------------|
B--5--5--5--5--5--5--5--5--5--5--5--5--5--5--5--5--5--5---------------|
G--7--7--7--7--7b-7b-7b-7b-7b-7b-7b-7b-7--7--7--7--7--7--7-5-7-5---3--|
D---------------------------------------------------------------------|
A---------------------------------------------------------------------|
E---------------------------------------------------------------------|

*Slowly bend up the 7 on the G string to  full bend and then
slowly release it


e----------------------------------------------------------------------------------------|
B----10--10--10--10--10--10--10--10--10--10--10--10--13-10--10--10--10--10--10--10--10---|
G----12--12--12--12b-12b-12b-12b-12--12--12--12--12---------12--12--12b-12b-12--12--12---|
D----------------------------------------------------------------------------------------|
A----------------------------------------------------------------------------------------|
E----------------------------------------------------------------------------------------|

*Keep fully bending and releasing the 12 on the G string to match the song


Then Intro/Chorus (This time x4)


End on:

e-----|
B-----|
G-----|
D--5--|
A--5--|
E--3--|

*Let ring and try to get some feedback from your amp
by placing your guitar close to the amp.

A second Guitar plays this in the background:

e-------------------------------------------------|
B-----------------------------------5---5--5--5---|
G-------------7---7--7--------------5---5--5--5---|
D--5---5--5---7---7--7---2---2--2---5---5--5--5---| x4
A--5---5--5---5---5--5---2---2--2---3---3--3--3---|
E--3---3--3--------------0---0--0-----------------|



And that's the whole tab! Please rate and comment!
comments
print report bad tab
I want to post or [tab]
guest
You may want to rate the tab now too:
select rating
Please do not post tabs as comments. Select "correction" instead!