Oops, an error
Loading. Please wait.

In The Blood Bass Tab

version 2
version 2

Whole song

646 views 1 this week
1 commentread comment
1 2 3 4 5
please rate
add to favorites
launch autoscroll
font size
0
reset
guitar tuner
Tab Pro tools
  • play this tab
  • loop segment
  • change instrument
  • show fretboard
  • metronome
Autoscroll
slow
fast
+/-
esc
set tempo
stop
Contributor
Difficulty
novice
Standard Tuning 5 String Tab

Intro

G ----------------------------|
D ----------------------------|
A ----------------------------|
E --1--0--5--33-1-0-5-33-1111-|
B ----------------------------|

Pre Verse (Hangs on F, I throw the E in, but they don't)
G -------------------------------------------------------|
D -------------------------------------------------------|
A -------------------------------------------------------|
E --1-1-0-1-1-0-1-1-0-1-1-0-1-1-0-1-1-0-1-1-0-1-1-0-1111-|  to Verse
B -------------------------------------------------------|

Verse Pt 1
G -----------------------------------------------            G----|
D -----------------------------------------------            D----|
A ----------------------------------------------- X2 Then    A----|
E --1-1-0-1-1-0-1-1-0-1-1-0-5-5-0-5-5-0-5-5-0-5-5            E-33-|
B -----------------------------------------------            B----|

Verse Pt 2
G ----------------------------------------------------|
D ----------------------------------------------------|
A ----------------------------------------------------|
E --1-1-1-1-0-0-0-0-5-5-5-5-5-5-5-33--1-1-1-1-0-0-0-0-|
B ----------------------------------------------------|

Chorus
G -----------------------------------|
D -----------------------------------|
A -----------------------------------| X4
E --3-3-3-3-5-5-5-5-1-1-1-1-1-1-1-00-|
B -----------------------------------|

Pre Verse (Hangs on F, I throw the E in, but they don't)
G -------------------------------------------------------|
D -------------------------------------------------------|
A -------------------------------------------------------|
E --1-1-0-1-1-0-1-1-0-1-1-0-1-1-0-1-1-0-1-1-0-1-1-0-1111-|  to Verse
B -------------------------------------------------------|

Verse Pt 1
G -----------------------------------------------            G----|
D -----------------------------------------------            D----|
A ----------------------------------------------- X2 Then    A----|
E --1-1-0-1-1-0-1-1-0-1-1-0-5-5-0-5-5-0-5-5-0-5-5            E-33-|
B -----------------------------------------------            B----|

Verse Pt 2
G ----------------------------------------------------|
D ----------------------------------------------------|
A ----------------------------------------------------|
E --1-1-1-1-0-0-0-0-5-5-5-5-5-5-5-33--1-1-1-1-0-0-0-0-|
B ----------------------------------------------------|

Chorus
G -----------------------------------|
D -----------------------------------|
A -----------------------------------|
E --3-3-3-3-5-5-5-5-1-1-1-1-1-1-1-00-| X3 then see below for 4th time
B -----------------------------------|

G -----------------------------------|
D -----------------------------------|
A --------------------3-2-0--3-2-0---| Then to Bridge
E --3-3-3-3-5-5-5-5------------------|
B -----------------------------------|

G ---------------------------------------------------------|
D ---------------------------------------------------------|
A -------2-3-2------------3-2--------2-3-2-----------------|
E --1-3--------3--1-3-0-------3--1-3-------1-1-1-1-3-3-3-3-|
B ---------------------------------------------------------|

Solo
G --------------------------------------------------------|
D --------------------------------------------------------|
A ------2-3-3-2-------3-3-2-------2-3-3-2-------3-3-2-----|X4 then 5th
E --1-1---------3-3-3---------1-1---------3-3-3-----------|   see below
B --------------------------------------------------------|

G ----------------------------------------------------------|
D ----------------------------------------------------------|
A ------2-3-3-2-------3-3-2-------2-3-3-2-------3-3-2-------|
E --1-1---------3-3-3---------1-1---------3-3-3--------1111-| to Pre Verse
B ----------------------------------------------------------|

Pre Verse (Hangs on F, I throw the E in, but they don't)
G -------------------------------------------------------|
D -------------------------------------------------------|
A -------------------------------------------------------|
E --1-1-0-1-1-0-1-1-0-1-1-0-1-1-0-1-1-0-1-1-0-1-1-0-1111-|  to Verse
B -------------------------------------------------------|

Verse Pt 1
G -----------------------------------------------            G----|
D -----------------------------------------------            D----|
A ----------------------------------------------- X2 Then    A----|
E --1-1-0-1-1-0-1-1-0-1-1-0-5-5-0-5-5-0-5-5-0-5-5            E-33-|
B -----------------------------------------------            B----|

Verse Pt 2
G ----------------------------------------------------|
D ----------------------------------------------------|
A ----------------------------------------------------|
E --1-1-1-1-0-0-0-0-5-5-5-5-5-5-5-33--1-1-1-1-0-0-0-0-|
B ----------------------------------------------------|

Chorus
G -----------------------------------|
D -----------------------------------|
A -----------------------------------|  Repeats To End
E --3-3-3-3-5-5-5-5-1-1-1-1-1-1-1-00-|
B -----------------------------------|
comments
We did not receive enough feedback on this tab! Please rate:
print report bad tab
1 2 3 4 5
1 comment total.
0 reply
gquady09 wrote on April 2 2008, 10:35 pm

Why tab it for a 5-string if you don't even use the low B string?

I want to post or [tab]
guest
You may want to rate the tab now too:
select rating
Please do not post tabs as comments. Select "correction" instead!