Oops, an error
Loading. Please wait.

Juicy Bass Tab

version 1
version 1

Whole song

Interactive

1,144 views 1 this week
no commentswrite comment
1 2 3 4 5
please rate
add to favorites
launch autoscroll
font size
0
reset
guitar tuner
Tab Pro tools
  • play this tab
  • loop segment
  • change instrument
  • show fretboard
  • metronome
×
Best way to learn
"Juicy"
Autoscroll
slow
fast
+/-
esc
set tempo
stop
Contributor
----------------------------------------------------------------------------
			     JUICY - Better Than Ezra
----------------------------------------------------------------------------

Tabbed By : Josh Jones
e-mail: combosaregross@gmail.com
first tab. so don't hate. haha
Tuning: standard

                       play this for a bit
G|-------------------------------------------------------------------------|
D|----------------3-4-5-5-------------------------3-4-5-5------------------|
A|------------5-5---------5-4-3-3---------3-4-5-5---------5-4-3-3----------|
E|--------------------------------5-4-3-3-------------------------5-4-3-3--|
                      then you play something like this...

G|-------------------------------------------------------------------------|
D|-------------------------------------------------------------------------|
A|------------5-5-5-5-5-5-5-4-3-3---------3-4-5-5-5-5-5-5-4-3-3------------|
E|--------------------------------5-4-3-3-----------------------5-4-3-3----|
          and when the singer's like "ah ah ah ah ah ah...." play this

G|-------------------------------------------------------------------------|
D|----------------3-4-5------------------3-4-5-----------------------------|
A|------------5-5---------------3-4-5-5-------------3-4-5------------------|
E|--------------------------333-----------------333------------------------|
| /  slide up
| \  slide down
| h  hammer-on
| p  pull-off
| ~  vibrato
| +  harmonic
| x  Mute note
============================================================================
comments
We did not receive enough feedback on this tab! Please rate:
print report bad tab
1 2 3 4 5
I want to post or [tab]
guest
You may want to rate the tab now too:
select rating
Please do not post tabs as comments. Select "correction" instead!