Oops, an error
Loading. Please wait.

Speeding Up To Slow Down bass

1 view 1 this week
no commentswrite comment
1 2 3 4 5
3 more votes to show rating
add to favorites
×
Save as Personal and add changes to this tab that will be seen only by you. Learn more ›
×
You can save this tab as Personal to edit and correct it or add notes. All changes will be seen only by you. Learn more »
launch autoscroll
font size
0
reset
guitar tuner
edit
Autoscroll
slow
fast
+/-
esc
set tempo
stop
About this tab version
This song was recorded on a 5 string but the recent live performances are on a 4 string where the low string notes are moved up an octave. Please enjoy this, rate it or comment. Was this info helpful? Yes No
Better than Ezra - Speeding Up To Slow Down
Tuning - Standard 5 String Bass 


[Intro]
   
   repeat 0:16 - 1:00
G|------------------|------------------|------------------|------------------|
D|------------------|------------------|------------------|------------------|
A|------------------|------------------|------------------|------------------|
E|------------------|------------------|------------------|------------------|
B|-1-----1-1--------|-3-----3-3--------|-0-----0-0--------|-1-----1-1--------|

Quick slide before next riff
G|------------------|
D|------------------|
A|------2/10\-------|
E|------------------|
B|------------------|



[Verse Riff 1]

   repeat from 1:01 - 1:45
G|------------------|------------------|------------------|------------------|
D|------------------|------------------|------------------|------------------|
A|-3-----3-3--------|-5-----5-5--------|-2-----2-2--------|-3-----3-3------2-|
E|------------------|----------------5-|------------------|------------------|
B|------------------|------------------|------------------|------------------|



[Bridge]

G|-------------------|------------------|------------------|------------------------|
D|-------------------|------------------|------------------|------------------------|
A|----------2------3-|------------------|---------2------3-|---3--3--3--3--3--3/17\-|
E|-3-----------------|------------------|-3----------------|------------------------|
B|-------------------|------------------|------------------|------------------------|



[Verse Riff 2]
   
G|------------------------|------------------------|------------------------|------------------------|
D|------------------------|------------------------|------------------------|------------------------|
A|-3--3--3----3--2-----2--|-5--5--5----5--3--2-----|---------------2-----2--|-3--3--3----3--2-----2--|
E|------------------5-----|---------------------5--|-3--3--3----3-----3-----|------------------5-----|
B|------------------------|------------------------|------------------------|------------------------|

   This section repeats throughout 1:55 - 3:41. As the music intensifies extra notes and
   hammer-ons are added around the same note pattern. 



[Outro]

   Play same repeated rhythm as Intro, end on 1st fret (C) 
G|------------------|------------------|------------------|------------------|
D|------------------|------------------|------------------|------------------|
A|------------------|------------------|------------------|------------------|
E|------------------|------------------|------------------|------------------|
B|-1-----1-1--------|-3-----3-3--------|-0-----0-0--------|-1-----1-1--------|




************************************
KEY:

| /   Slide up
| \   Slide down

************************************

            
            
Suggest correction
Creating personal tab
Creating personal tab
You can edit any tab online and save it as your Personal.

You can edit, replace or remove any tab part or add personal notes – all changes will be seen only by you.

Personal tabs can be accessed anytime from any device, even offline.
Learn more »
Give kudos to tab author, rate the tab!
1 2 3 4 5
comments
print report bad tab
guest
You may want to rate the tab now too:
select rating
Wanna post a correction for this tab? Suggest correction