Oops, an error
Loading. Please wait.

The Killer Inside Tab

version 2
version 2

Whole song

1,500 views 1 this week
1 commentread comment
1 2 3 4 5
2 more votes to show rating
add to favorites
launch autoscroll
font size
0
reset
how to read this tab
guitar tuner
Autoscroll
slow
fast
+/-
esc
set tempo
stop
Help us to improve Ultimate-Guitar.com Take our survey!
×
Author
SONG: The Killer Inside
BAND: Better Than Ezra
ALBUM: Deluxe

This is a more complete tab of this song than was out there.
I corrected the intro and main riff, put things in order, and
tabbed the bridge and solo that were missing. Cheers!

Update: 6/10/09 I fixed a mistake on Fill A that was duplicated
throughout the whole tab

INTRO
--0------------------------------0----------------------------|
----3-2h3-----3-----3---3----------3-2h3-----3-----3---3------|
------------2-----2-------0----------------2-----2-------0----|
----------0------------------------------0--------------------|
----------------3----2------1------------------3----2------1--|
--------------------------------------------------------------|

VERSE 1
--0------------------------------0----------------------------|
----3-2h3-----3-----3---3----------3-2h3-----3-----3---3------|
------------2-----2-------0----------------2-----2-------0----|
----------0------------------------------0--------------------|
----------------3----2------1------------------3----2------1--|
--------------------------------------------------------------|
	         she believes   that I'd be....her


--0------------------------------0----------------------------|
----3-2h3-----3-----3---3----------3-2h3-----3-----3---3------|
------------2-----2-------0----------------2-----2-------0----|
----------0------------------------------0--------------------|
----------------3----2------1------------------3----2------1--|
--------------------------------------------------------------|
		 she believes	   In me


RIFF A (played over intro)
--------------------------------------------------------------|
--------------------------------------------------------------|
--------------------------------------------------------------|
-------------3s5-3-2h3-0---7b8r7----------3s5-3-7b8r7-5-------|
-3b4-5-0-5-7-----------------------0--5-7---------------7s3-1-|
--------------------------------------------------------------|


VERSE 2
--0------------------------------0----------------------------|
----3-2h3-----3-----3---3----------3-2h3-----3-----3---3------|
------------2-----2-------0----------------2-----2-------0----|
----------0------------------------------0--------------------|
----------------3----2------1------------------3----2------1--|
--------------------------------------------------------------|
                  well she...    that time...right

--0------------------------------0----------------------------|
----3-2h3-----3-----3---3----------3-2h3-----3-----3---3------|
------------2-----2-------0----------------2-----2-------0----|
----------0------------------------------0--------------------|
----------------3----2------1------------------3----2------1--|
--------------------------------------------------------------|
           And... believe        there's... me


CHORUS
----------------3-----------0-----------------3---------------|
--3-------------3-----------2-----------------3---------------|
--0-------------0-----------2-----------------0---------------|
--2-------------0-----------2-----------------0---------------|
--3-------------2-----------0-----------------2---------------|
----------------3-----------------------------3---------------|
  And Iiiiiiiiiiiiiiiii	  Hope that she believes

----------------3-----------0---------------3-----------------|
--3-------------3-----------2---------------3-----------------|
--0-------------0-----------2---------------0-----------------|
--2-------------0-----------2---------------0-----------------|
--3-------------2-----------0---------------2-----------------|
----------------3---------------------------3-----------------|
 Cause Iiiiiiiiiiiiii	  Wonder if she sees  the killer inside me


BRIDGE (played over intro as well)
-------------------------------------------------------------------------|
-------------------------------------------------------------------------|
-------------------------------------------------------------------------|
-------------------5h7p5-----------------------5h7---7s9-7s5-4-5-4h5r4p0-|
-7s9--5h7-7s9---5-7-------7s9-5---5h7-7s9--5h7-----5---------------------|
-------------------------------------------------------------------------|

VERSE 3
--0------------------------------0----------------------------|
----3-2h3-----3-----3---3----------3-2h3-----3-----3---3------|
------------2-----2-------0----------------2-----2-------0----|
----------0------------------------------0--------------------|
----------------3----2------1------------------3----2------1--|
--------------------------------------------------------------|
                 The lights..    and the clouds...

--0------------------------------0----------------------------|
----3-2h3-----3-----3---3----------3-2h3-----3-----3---3------|
------------2-----2-------0----------------2-----2-------0----|
----------0------------------------------0--------------------|
----------------3----2------1------------------3----2------1--|
--------------------------------------------------------------|
           You close...key       but there's... hide

Chorus
----------------3-----------0-----------------3---------------|
--3-------------3-----------2-----------------3---------------|
--0-------------0-----------2-----------------0---------------|
--2-------------0-----------2-----------------0---------------|
--3-------------2-----------0-----------------2---------------|
----------------3-----------------------------3---------------|
  And Iiiiiiiiiiiiiiiii	  Hope that she believes

----------------3-----------0---------------3-----------------|
--3-------------3-----------2---------------3-----------------|
--0-------------0-----------2---------------0-----------------|
--2-------------0-----------2---------------0-----------------|
--3-------------2-----------0---------------2-----------------|
----------------3---------------------------3-----------------|
 Cause Iiiiiiiiiiiiii	 Wonder if she sees  the killer inside me


RIFF A
---------------------------------------------------------|
---------------------------------------------------------|
---------------------------------------------------------|
--------3s5-3-2h3-0---7b8r7----------3s5-3-7b8r7-5-------|
--0-5-7-----------------------0--5-7---------------7s3-1-|
---------------------------------------------------------|

<>


Guitar Solo
-------------------------------------------------------------------------|
--15~~-------------------------------------------------------------------|
-------------------------------------------------------------------------|
-----10-10h12-12-12-12p10-10-10p9-------------------------------10-10h12-|
----------------------------------12b1312r10-12b13-9s10-x-10s12----------|
-------------------------------------------------------------------------|

--------------13b15r13----------------------------------------------------|
------------------------13b15r13-------------------15----------15--15--10-|
------------------------------------12-12-10--12s14--14--14-14---14--12---|
--12s14-14s17-------------------------------------------------------------|
--------------------------------------------------------------------------|
--------------------------------------------------------------------------|

-------------------------------------------------------------------------|
-----10----8----8----8-----------------------------------10-10-10--------|
--12----10---10---10---10--10p9--9-9-7h9-9-7-6----12b14------------12b14-|
-------------------------------------------------------------------------|
-------------------------------------------------------------------------|
-------------------------------------------------------------------------|

-------------------------------------------------------10-10------10-10--|
-10-10-10-------10-10-10-------10-10-10-----------13b15------13b15-------|
----------12b14----------12b14----------12b14r12-------------------------|
-------------------------------------------------------------------------|
-------------------------------------------------------------------------|
-------------------------------------------------------------------------|

----15b17r15b17-15p13----------------------------------------------------|
-13----------------------------------------------------------------------|
-------------------------------------------------------------------------|
-------------------------------------------------------------------------|
-------------------------------------------------------------------------|
-------------------------------------------------------------------------|


Chorus
----------------3-----------0-----------------3---------------|
--3-------------3-----------2-----------------3---------------|
--0-------------0-----------2-----------------0---------------|
--2-------------0-----------2-----------------0---------------|
--3-------------2-----------0-----------------2---------------|
----------------3-----------------------------3---------------|
  And Iiiiiiiiiiiiiiiii	  Hope that she believes

----------------3-----------0---------------3-----------------|
--3-------------3-----------2---------------3-----------------|
--0-------------0-----------2---------------0-----------------|
--2-------------0-----------2---------------0-----------------|
--3-------------2-----------0---------------2-----------------|
----------------3---------------------------3-----------------|
 Cause Iiiiiiiiiiiiii	 Wonder if she sees  the killer inside me


RIFF A x2 w/Intro
---------------------------------------------------------|
---------------------------------------------------------|
---------------------------------------------------------|
--------3s5-3-2h3-0---7b8r7----------3s5-3-7b8r7-5-------|
--0-5-7-----------------------0--5-7---------------7s3-1-|
---------------------------------------------------------|


COMPLETE LYRICS
She believes
that I'd be better off without her
And she believes in me

Well she believes
that time can make things right (yeah)
And I wanna believe
there's been a change in me

And I
Hope that she believes
Cause I
wonder if she sees
the killer inside me

The lights go down
And the clouds are building outside
you close the door and turn the key
but there's no place to hide
Suggest correction
Give kudos to tab author, rate the tab!
1 2 3 4 5
comments
print report bad tab
1 comment total.
0 reply
rightkeith 120 Dec 28, 2008 05:35 PM

In Riff A, 5b7r5 should be 7b8r7

guest
You may want to rate the tab now too:
select rating
Wanna post a correction for this tab? Suggest correction