Oops, an error
Loading. Please wait.

Kids Alright Bass

430 views 1 this week
no commentswrite comment
1 2 3 4 5
2 more votes to show rating
add to favorites
launch autoscroll
font size
0
reset
guitar tuner
×
Best way to learn
"Kids Alright"
Autoscroll
slow
fast
+/-
esc
set tempo
stop
==========================================================================
BASS TAB: "Kid's Allright" by Bettie Serveert
==========================================================================

Transcribed by: William van Houtum (wil_mike@dds.nl)


Intro:
-----

  G                F#               Em7              Em7
G|----------------|----------------|----------------|----------------|
D|----------------|----------------|----------------|----------------|
A|----------------|----------------|----------------|----------------|(2x)
E|3-------------3-|2-------------2-|0-------------0-|0-----------0-2-|


Verse:
-----

  G                F#               Em7              Em7
G|----------------|----------------|------------7P4-|7---4-----------|
D|----------------|----------------|----------------|--------7-5-----|
A|--------5P2-----|--------4P1-----|----------------|------------7---|(6x)
E|3-------------3-|2-------------2-|0---------------|----------------|


Chorus:
------

  C                A                Em7              Em7
G|--------3-5-3---|----------------|--------7-9-7---|--------7-9-7---|
D|----3-5-------5-|--------5-7-5---|----7-9-------9-|----7-9-------9-|
A|3-6-------------|----5-7-------7-|7-10------------|7-10------------|(2x)
E|----------------|5-8-------------|----------------|----------------|
  

  C                A
G|--------3-5-3---|----------------|
D|----3-5-------5-|----------------|
A|3-6-------------|----------------|
E|----------------|5---------------|


After Chorus 1:
--------------

  G                F#              
G|----------------|----------------|
D|----------------|----------------|
A|----------------|----------------|
E|3-------------3-|2-----------0-2-|


After Chorus 2:
--------------

  G                F#               Em7              Em7
G|----------------|----------------|----------------|----------------|
D|----------------|----------------|----------------|----------------|
A|----------------|----------------|----------------|----------------|
E|3-------------3-|2-------------2-|0-------------0-|0-----------0-2-|


Bridge:
------

  G                E                B                B
G|----------------|----------------|--------2-4-2---|--------2-4-2---|
D|--------3-5-3---|--------0-2-0---|----2-4-------4-|----2-4-------4-|
A|----3-5-------5-|----0-2-------2-|2-5-------------|2-5-------------|(2x)
E|3-6-------------|0-3-------------|----------------|----------------|


Outro:
-----

  G                F#               Em7              
G|----------------|----------------|----------------|
D|----------------|----------------|----------------|
A|----------------|----------------|----------------|
E|3-------------3-|2-------------2-|0---------------|


Song structure:
--------------

Intro
Verse
Chorus 
After Chorus 1
Verse
Chorus
Bridge
Chorus 
After Chorus 2
Verse
Chorus
Outro

==========================================================================

NOTES: 
-----
- For chorus and bridge the same pattern is played at different positions
  (N):

  |----------------N-[N+2]-N-------|
  |--------N-[N+2]-----------[N+2]-|
  |N-[N+3]-------------------------|

- P = Pull off

==========================================================================
Suggest correction
Give kudos to tab author, rate the tab!
1 2 3 4 5
comments
print report bad tab
guest
You may want to rate the tab now too:
select rating
Wanna post a correction for this tab? Suggest correction