Oops, an error
Loading. Please wait.

The L Word Theme Tab

1,365 views 3 this week
no commentswrite comment
1 2 3 4 5
poor
x 1
add to favorites
launch autoscroll
font size
0
reset
how to read this tab
guitar tuner
Tab Pro tools
  • play this tab
  • loop segment
  • change instrument
  • show fretboard
  • metronome
Autoscroll
slow
fast
+/-
esc
set tempo
stop
Contributor
Difficulty
intermediate
The L Word Theme Song by Betty
http://www.myspace.com/bettymusic

There's a really great tab already out there, but I wanted to make one a little easier 
not using bar chords (I hate them). So I tabbed this one in a lower key.

E------------------------------------------------|
B-5-4-3-1-0---5-4-3-1----5-4-3-1-0---5-4-3-1-----|
G-----------2----------2-----------2----------2--|
D------------------------------------------------|
A------------------------------------------------|
E------------------------------------------------|


E------------------------------------------------|
B---5-3-5-4-3---5-3-5---5-3-1-5-3-1-5-3-8-5------|
G-2-----------2----------------------------------|
D------------------------------------------------|
A------------------------------------------------|
E------------------------------------------------|


  Am             G9           C           Am
E-0--------------0------------0-----------0------|
B-1--------------0------------1-----------1------|
G-2--------------1------------0-----------2------|
D-2--------------0------------2-----------2------|
A-0--------------2------------3-----------0------|
E-X--------------3------------0-----------0------|
  Girls in tight dresses who drag with mustaches.

  Am             G9           C           Am
E-0--------------0------------0-----------0------|
B-1--------------0------------1-----------1------|
G-2--------------1------------0-----------2------|
D-2--------------0------------2-----------2------|
A-0--------------2------------3-----------0------|
E-0--------------3------------0-----------0------|
  Chicks driving fast, ingenues with long lashes.

  Am        E                 C9add2    Gb5add6
E-0---------0-----------------0---------0--------|
B-1---------0-----------------3---------2--------|
G-2---------1-----------------0---------0--------|
D-2---------2-----------------2---------2--------|
A-X---------X-----------------0---------2--------|
E-X---------X-----------------X---------X--------|
  Women who long, love, lust, women who give.

  Am          G9            C           E
E-0-----------0-------------0-----------0--------|
B-1-----------0-------------1-----------0--------|
G-2-----------1-------------0-----------1--------|
D-2-----------0-------------2-----------2--------|
A-0-----------2-------------3-----------2--------|
E-0-----------3-------------0-----------0--------|
  This is the way, it's the way that we live.

  Am        E                 C9add2    Gb5add6
E-0---------0-----------------0---------0--------|
B-1---------0-----------------3---------2--------|
G-2---------1-----------------0---------0--------|
D-2---------2-----------------2---------2--------|
A-X---------X-----------------0---------2--------|
E-X---------X-----------------X---------X--------|
  Talking, laughing, loving, breathing, fighting, fucking, crying, drinking, writing, 
winning, losing, cheating, kissing, thinking, dreaming.

  Am          G9            C           G9
E-0-----------0-------------0-----------0--------|
B-1-----------0-------------1-----------0--------|
G-2-----------1-------------0-----------1--------|
D-2-----------0-------------2-----------0--------|
A-0-----------2-------------3-----------2--------|
E-0-----------3-------------0-----------3--------|
  This is the way, it's the way that we live,
           C           E         Am
E----------0-----------0---------0---------------|
B----------1-----------0---------1---------------|
G----------0-----------1---------2---------------|
D----------2-----------2---------2---------------|
A----------3-----------2---------0---------------|
E----------0-----------0---------0---------------|
  it's the way that we live, and love.
comments
We did not receive enough feedback on this tab! Please rate:
print report bad tab
1 2 3 4 5
I want to post or [tab]
guest
You may want to rate the tab now too:
select rating
Please do not post tabs as comments. Select "correction" instead!