Oops, an error
Loading. Please wait.

Big Hair Broken Heart Bass Tab

62 views 1 this week
no commentswrite comment
1 2 3 4 5
please rate
add to favorites
launch autoscroll
font size
0
reset
guitar tuner
Autoscroll
slow
fast
+/-
esc
set tempo
stop
Help us to improve Ultimate-Guitar.com Take our survey!
×
Author
Difficulty

INTRO: (THIS SONG GOES OUT TO LITA FORD WE LOVE YOU WE SAW YOU ON VH1!!!)
G:-------------------|
D:-------------------|
A:3------------------|
E:--------3-------1--| X4


VERSE: WHERE DID ALL THOSE HAIRBANDS GO? THOSE CRAZY NIGHTS OF ROCK N ROLL
G:----------------------------------|
D:----------------------------------|
A:33333333--------------------------|
E:--------333333331111111111111111--| X4

CHORUS: WHERE DID THOSE HAIRBANDS GO?
G:----------------------------------|
D:----------------------------------|
A:5-5-5555--------------------------|
E:-------5-5-55553-3-3333-3-3-3333--| X2

INTRO  X1
VERSE  X4
CHORUS X2
INTRO  X8 WERE GONNA TAKE YOU BACK 2 A TIME WHEN ROCK N ROLL WAS ROCK N ROLL
CHORUS X4 (THROUGH OUT SOLO)

(cant figure out the fingering at the end of solo)

FINAL CHOURS:

G:----------------------------------|
D:----------------------------------|
A:7-7-7777--------------------------|
E:-------7-7-77775-5-5555-5-5-5555--| X4

INTRO X2 WE LOVE YOU LITA!!
Suggest correction
What's this?
You can suggest a correction to this tab. Community and Mods will review your correction and vote to approve or reject it.
comments
We did not receive enough feedback on this tab! Please rate:
print report bad tab
1 2 3 4 5
guest
You may want to rate the tab now too:
select rating
Please do not post tabs as comments. Select "correction" instead!