Oops, an error
Loading. Please wait.

I Cant Hear You No More Bass Tab

10 views 1 this week
no commentswrite comment
1 2 3 4 5
3 more votes to show rating
add to favorites
launch autoscroll
font size
0
reset
guitar tuner
Autoscroll
slow
fast
+/-
esc
set tempo
stop
Help us to improve Ultimate-Guitar.com Take our survey!
×
Author
I Can’t Hear You No More
Written by Gerry Goffin and Carole King this version by Betty Everett
Released in 1964. Reached number 66 on Billboard Hot 100.
Tab by bass50611. Great Northern Soul track, makes one want to boogie!
More or less as original, just the timing you have to listen for
Comments bass254@btinternet.com 

Intro:
G|-----------------------------------------------|
D|-----------------------------------------------|
A|-5----5----5----5----5--5---5--5---5--5---5--5-|
E|-----------------------------------------------|

Verse 1:
G|------------------------------------------------------------|
D|----------------------------------------------------------4-|
A|-5--5-5-5--5-5-5--5-5-5--5-5-5--5-5-5--5-5-5--5-5-5--5-5-7--|
E|------------------------------------------------------------|

G|-----------------------------------------------------------|
D|-5--5-5-5--5-5-5--5-5-5--5-5-5--5-5-5--5-6-7--7-7----------|
A|-------------------------------------------------------4-5-|
E|--------------------------------------------------5-5-7----|

Chorus 1:                                      (Play This Bit x2)
G|--------------------------------------------------------|
D|--------------------------------------------------------|
A|-5-5-5--5-5-5--5-5-5--5-5-5--5-5-5--5-5-5--5-5-5--5-5-5-|
E|--------------------------------------------------------|

G|---------------------------------|
D|----------------5-5-5-5--7-7-----|
A|-5-5-5-2--2-2-2----------------4-|
E|-----------------------------7---|

Verse 2
G|------------------------------------------------------------|
D|----------------------------------------------------------4-|
A|-5--5-5-5--5-5-5--5-5-5--5-5-5--5-5-5--5-5-5--5-5-5--5-5-7--|
E|------------------------------------------------------------|

G|-----------------------------------------------------------|
D|-5--5-5-5--5-5-5--5-5-5--5-5-5--5-5-5--5-6-7--7-7----------|
A|-------------------------------------------------------4-5-|
E|--------------------------------------------------5-5-7----|

Chorus 2:                                      (Play This Bit x2)
G|--------------------------------------------------------|
D|--------------------------------------------------------|
A|-5-5-5--5-5-5--5-5-5--5-5-5--5-5-5--5-5-5--5-5-5--5-5-5-|
E|--------------------------------------------------------|

G|--------------------------------|
D|----------------5-5-5-5---------|
A|-5-5-5-2--2-2-2---------------4-|
E|------------------------5-5-7---|

Interlude:
G|---------------------------------------------------------------------|
D|---------------------------------------------7-7-7-7---------7-7-7-7-|
A|-5-5-5-5--5-5-5-5--5-5-5-5--5-5-5-5--6-6-6-6---------6-6-6-6---------|
E|---------------------------------------------------------------------|

G|------------------------------------------------------------------------|
D|-----------7-7-7-7-----------7-7-7-7-----------7-7-7-7----------7-7-7-7-|
A|-6--6-6--6---------6--6-6--6---------6--6-6--6--------6--6-6--6---------|
E|------------------------------------------------------------------------|

Last Chorus:                                   (Repeat To Fade/End)
G|-------------------------------------------------------------|
D|---------------------------------------------6-6-6-6---------|
A|-6-6-6--6-6-6--6-6-6--6-6-6---6-6-6-3--3-3-3---------------5-|
E|-----------------------------------------------------6-6-8---|

My Thanks To KRAZIEKHAT For The Chords

Suggest correction
Give kudos to tab author, rate the tab!
1 2 3 4 5
comments
print report bad tab
guest
You may want to rate the tab now too:
select rating
Wanna post a correction for this tab? Suggest correction