Oops, an error
Loading. Please wait.

Ad A Dglgmut Tab

version 2
version 2

Solo

Interactive

5,200 views 1 this week
no commentswrite comment
1 2 3 4 5
x 3
add to favorites
launch autoscroll
font size
0
reset
how to read this tab
guitar tuner
Autoscroll
slow
fast
+/-
esc
set tempo
stop
Help us to improve Ultimate-Guitar.com Take our survey!
×
Author
Difficulty
advanced
  -------------------------------------------------------------------------
                     Ad A Dglgmut - Between the buried and me
  -------------------------------------------------------------------------
Tabbed by: stoutenburgh
Email:day_nan@yahoo.com

Tuning: Db Gb B E Ab Db


 this is the solo before the interlude.
 and listen for the timing and little sweeps in here you have to do

Db|---12---11h1211---------------------------------------------------------|
Ab|-----------------14-12--------------------------------------------------|
E |------------------------11--11/13-----13h14p13--11-13-13-14-13----------|
B |---------------------------------------------------------------11-------|
Gb|------------------------------------------------------------------------|
Db|------------------------------------------------------------------------|

Db|----------------------16-17-16-----------------------11--------14-16-14-|
Ab|-------12-14----16----------------16--17-----------12--14~--------------|
E |-----13------13----13----------14----------------13---------------------|
B |---14------------------------------------------14-----------------------|
Gb|-------------------------------------------1416-------------------------|
Db|------------------------------------------------------------------------|

Db|------------------------------------------19p14--14h17p14--1416-b16-r16-|
Ab|----------------------------------------17-----16------16---------------|
E |---16--16h18----18-16----16-14--------16--------------------------------|
B |-------------14-------13-------16---16----------------------------------|
Gb|----------------------------------19------------------------------------|
Db|------------------------------------------------------------------------|

Db|---14--1614-------------------------------------------------------------|
Ab|--------------12--------------------------------------------------------|
E |-------------------13-14-13-11-13-11------------6-8--9------9-----------|
B |-------------------------------------9-9-----99--------9-11---9/11------|
Gb|------------------------------------------------------------------------|
Db|------------------------------------------------------------------------|

Db|---------------------------------------------------16p14----------141615|
Ab|-10----9----10-----10-----12-----10----------16h17-----17p16141617------|
E |----9----9------9------9------9------9-----18---------------------------|
B |-----------------------------------------16-----------------------------|
Gb|---------------------------------------19-------------------------------|
Db|------------------------------------------------------------------------|

Db|------------------------------------------------------------------------|
Ab|-15-13-12-12h13p12------------------15~---12h13p12-10-------------------|
E |-------------------12-11-----12--16-------------------12-11-12-11-------|
B |---------------------------12-------------------------------------14----|
Gb|-------------------------14---------------------------------------------|
Db|------------------------------------------------------------------------|

Db|---------------------------------------15-------------------------------|
Ab|------------------------------------17-----15--13-----------------------|
E |-----------------------------14--17----------------12---12h14p11--------|
B |-14--14/16------------14--17--------------------------------------------|
Gb|----------14----12--15--------------------------------------------------|
Db|------------------------------------------------------------------------|

Db|-------------11h14t19p11---------------------------------17-2017--------|
Ab|-----------12-----------12-----------------------------19-------16------|
E |---------11---------------11-------------------16b---20-----------------|
B |-------13-------------------13-------------1617-------------------------|
Gb|-----14-----------------------14---14151819-----------------------------|
Db|------------------------------------------------------------------------|
        sweep = = = = = = = = = = =


    listen for the bending and timing on this whole part
Db|------------------------------------------------------------------------|
Ab|-17----------16-b-r-b-r--12----12---------------------------------------|
E |------------------------------------11---13---8---9---------8---11----13|
B |------------------------------------------------------------------------|
Gb|------------------------------------------------------------------------|
Db|------------------------------------------------------------------------|

Db|------------------------------------------------------------------------|
Ab|------------------------------------------------------------------------|
E |---\8----8-9-------9---8-------8h9-9---9---9-9--11-11-11---11-11-11--12-|
B |---------------------------9--------------------------------------------|
Gb|------------------------------------------------------------------------|
Db|------------------------------------------------------------------------|

Db|------------------------------------------------------------------------|
Ab|--------------12---12-13-12----------13----------15-----16-------16b----|
E |---12p11--11------------------------------------------------------------|
B |------------------------------------------------------------------------|
Gb|------------------------------------------------------------------------|
Db|------------------------------------------------------------------------|
                                                                high bend
  thats it then the clean part

| /  slide up
| \  slide down
| h  hammer-on
| p  pull-off
| ~  vibrato
| +  harmonic
| x  Mute note
===========================================================================
Suggest correction
Give kudos to tab author, rate the tab!
1 2 3 4 5
comments
print report bad tab
guest
You may want to rate the tab now too:
select rating
Wanna post a correction for this tab? Suggest correction