Oops, an error
Loading. Please wait.

Alaska Bass Tab

version 1
version 1

Whole song

10,592 views 9 this week
8 commentsread comments
1 2 3 4 5
excellent!
x 6
add to favorites
launch autoscroll
font size
0
reset
guitar tuner
Tab Pro tools
  • play this tab
  • loop segment
  • change instrument
  • show fretboard
  • metronome
Autoscroll
slow
fast
+/-
esc
set tempo
stop
Contributor
Difficulty
advanced
Tuning: C# Standard
High to Low (E, B, F#, C#)


|-----------------------------------------------------------------|
|-----------------------------------------------------------------|
|------3~---5~---7~-------------2~---2~------7-6-3-2--------------|
|-0~------------------5~---2~-------------0----------5-3-2-3-5--0-|

|-----------|
|-----------|
|-3~--------|
|------3~---|


|-------------------------------------------------------------|
|-------------------------------------------------------------|
|---------------------------3---2-3-5-----------235-----------|
|-0---0---00----00----000-----3-------0-------3------3--3--33-|x4


|--------------------------------------------|
|--------------------------------------------|
|----------------6-6---------9-------------2-|
|-000--000--000------8-8-7-7----0-0-00-------|


                       x2
|------------------------|--------------------------------|
|-----5-5---------5-5----|--------------------------------|
|------------------------|---------5-4-----2-3-----5-5----|
|-3-3-----2---3-3-----2--|-5-2-3-2-----3-0-----3-0-----4--|


                       x2
|------------------------|--------------------------------|
|-----5-5---------5-5----|--------------------------------|
|------------------------|---------5-4-----2-3-----5-5----|
|-3-3-----2---3-3-----2--|-5-2-3-2-----3-0-----3-0-----4--|


                       x2
|------------------------|--------------------------------|
|-----5-5---------5-5----|--------------------------------|
|------------------------|---------5-4-----2-3-----5-5----|
|-3-3-----2---3-3-----2--|-5-2-3-2-----3-0-----3-0-----4--|


                       x2
|------------------------|--------------------------------|
|-----5-5---------5-5----|--------------------------------|
|------------------------|---------5-4-----2-3-----5-5----|
|-3-3-----2---3-3-----2--|-5-2-3-2-----3-0-----3-0-----4--|


|-------------------------|
|-------------------------|
|-------------------------|
|-3-2-1-4-3-2-6-5-4-3-2-1-|


|-----------------------------------------|
|-----------------------------3-----------|
|-----------------------------------------|
|-6-2-6-2---1-3-2-1--1-2-3-2----3-2-3-2-1-|x4

|-------------------------|
|-------------------------|
|-------------------------|
|-8~-----------------8----|

                  x3
|-------------------|-------------------|
|-------------------|-------------------|
|-0--------1--------|-0--------0--1--0--|
|----2--2-----1--1--|----2--2-----------|

                  x3
|-------------------|-------------------|
|-------------------|-------------------|
|-0--------1--------|-0--------0-----0--|
|----2~-------1~----|----2~-------4-----|

|---------------|-------------------------------------|
|---------------|-------------------------------------|
|---------------|-1-4-1---1-4---1---1---2-1-----------|
|-5~-----5~-----|-------3-----3---3---2-----3-2-0-----|


|-------------------------------------------------------------------|
|-------------------------------------------------2-1---------------|
|---5-4---------------------1---------5-4-------------2-3-----------|
|-3-----6-3-1-1-1-11-1-11-1---3-2-0-3-----5-6-2-3---------4-1-0-3-0-|x3

|------------------------------------------------------------------------|
|------------------------------------------------------------------------|
|---5-4---------------------1---------5-4---------7-6---------9-8--------|
|-3-----6-3-1-1-1-11-1-11-1---3-2-0-3-----5-6-3-5-----7-8-5-7-----9-10-7-|

|---------|------------|
|---------|------------|
|-----696-|------------|
|-5-8-----|-7---6---3--|


|----------------------------------|
|-----------------10-----9-----5---|
|-----1-0-3-2--------8-7---7-6---6-|
|-2-3---------3-4------------------|x2

                         x2
|--------------------------|--------------|
|-----5-5------------------|-10-----9-----|
|--------------------------|----8-7---7-6-|
|-3-3-----2--3--4-3-2-3--4-|--------------|


|------------------------------------------|------------|
|-----------------10-----9-----5-----------|------------|
|-----1-0-3-2--------8-7---7-6---6-----696-|------------|
|-2-3---------3-4------------------5-8-----|-7---6---3--|


|----------------------------------|
|-----------------10-----9-----5---|
|-----1-0-3-2--------8-7---7-6---6-|
|-2-3---------3-4------------------|x2

|-----------|
|-5-----0---|
|---6-----1-|
|-----------|


|---------------------------------|-------------------|
|---------------------------------|-------------------|
|---------6---------3-----6-----5-|-8-----------8--11-|
|-0-0-3-4-----7-4-5---5-8---8-7---|-----7-7-7---------|


|-----------------------|-----------------------|\
|-----------------------|-----------------------| \
|-------3~---------3~---|-------6~---------6~---|  \ 
|-5-4-5------5-4-5------|-8-7-8------8-7-8------|   \_ _
                                                        \ x2
|-----------------------|-----------------------------| /
|-------4~---------4~---|-------7~--------------------|/
|-6-5-6------6-5-6------|-9-8-9------9-8-9-8--6--5----|
|-----------------------|---------------------------6-|


|--------------|
|--------------|
|-0--------2---|
|----4-1-----3-|


|---------------------------------|
|-----------------3-0-1-4-7-4-----|
|-0-3-0-3-6-3-2-5-------------6-3-|
|---------------------------------|x3

|---------------------------------|
|-----------------3-0-1-4-7-4-5---|
|-0-3-0-3-6-3-2-5-----------------|
|---------------------------------|

|----------------------------|
|-10-----9-----5---5-----0---|
|----8-7---7-6---6---6-----1-|
|----------------------------|

|-----------------------------------------------------------|
|-----------------------------------------------------------|
|---------6-------------------------------------------------|
|-0-0-3-4----0-0-----0-0-0------0---0-0-----0-0-0-0----0-0--|

*This is also the bass solo.
|-----------------------------------------------------------------|
|-----------------------------------------------------------------|
|-----------------------------------------------------------------|
|-6-7-6-7-6-7-0-0-0-6-7-6-7-0-6-7-0-0-6-7-6-0-0-0-0-6-7-6-7-0-6-0-|x9
comments
print report bad tab
8 comments total. Showing first comments.
0 reply
dudebromanbrah4 wrote on June 15 2007, 12:17 am

everything looks good with the tab man.
just at the "breakdown" part.

|-----------------------------------------|
|-----------------------------------------|
|-----------------------------------------|
|-6-2-6-2---1-3-2-1--1-2-3-2--1-3-2-3-2-1-|x4


it should be

|-----------------------------------------|
|----------------------------3------------|
|-----1-----------------------------------|
|-3-2---1--1-3-2-1--1-2-3-2----3-2-3-2-1--|x4

the 3 on the 3rd string (c#,f#,-->B,e) can be a rest because the guitars do a harmonic or you can just play the base note of the harmonic. it sounds the same.

0 reply
carrotcake wrote on June 16 2007, 08:36 pm

yeah but I've watch the music video and dvd of them playing live from that silent circus re-issue cd and I coulda swore that the beginning starts |-6-2-6-2

and I don't know about the harmonic note though, I just play the octave

0 reply
carrotcake wrote on July 9 2007, 11:32 am

...and one more thing, how come no ones ratin this

I want to post or [tab]
guest
You may want to rate the tab now too:
select rating
Please do not post tabs as comments. Select "correction" instead!