Oops, an error
Loading. Please wait.

Alaska Tab

version 2
version 2

Intro

Whole song

8,277 views 1 this week
5 commentsread comments
1 2 3 4 5
accurate
x 10
add to favorites
launch autoscroll
font size
0
reset
how to read this tab
guitar tuner
Autoscroll
slow
fast
+/-
esc
set tempo
stop
Help us to improve Ultimate-Guitar.com Take our survey!
×
*THIS TAB WILL BE HARD TO UNDERSTAND UNLESS YOU LISTEN TO THE SONG CLOSELY!*


|--------------------12h15p12--------------------------14-17-14-15----------|
|-----------------12----------12--------------------15-------------17-------|
|--------------13----------------13--------------14-------------------16----|
|-----------14----------------------14-10-12-/16-------------------------17-|
|--------14-----------------------------------------------------------------|
|--12-15--------------------------------------------------------------------|


|-------------------20-19-17------------------------------------------------|
|----------15-17-19----------20-19-17-16-17-19-17-16------------------------|
|-14-15-17-------------------------------------------17-16------------------|
|-------------------------------------------------------------17-19-16------|
|---------------------------------------------------------------------18-19-|
|---------------------------------------------------------------------------|


|------------------------7h12t15p12p7--------|
|----------------8------8------------8-------|
|----------------------9--------------9------|
|------------9--------9----------------9-----|
|-10p9----7-----------------------------10---|
|------11------------------------------------|

|---------------------------------15-14--11h12p11----------------------------|
|------------------7-8-/13p12---13---------------12--------12h13p12---15/17--|
|------------8----------------12-------------------11---12----------12-------|
|--------9-----99------------------------------------14----------------------|
|--777----7------------------------------------------------------------------|
|----------------------------------------------------------------------------|


|----------------------15-14h15p14--------------------14-/17---|
|----12h13p12---15/17----------------------------12h15---------|
|-12----------12-------------------14-12------12---------------|
|--------------------------------------------12----------------|
|------------------------------------------14------------------|
|--------------------------------------------------------------|4x

 5th time
|---------------------------------------------------|
|---------------------------------------------------|
|-------------------------------------8-------------|
|-------9----7---10-----9/10-8/9-7/8--7--2--2-2-2---|
|---777---10---9----9---7/8--6/7-5/6--6--2--2-2-2---|
|-----------------------7/8--6/7-5/6-----0--0-0-0---|

Ive spent months trying to perfect this, i think its finally right


tyler v. sucks haha
Suggest correction
comments
print report bad tab
5 comments total. Showing first comments.
0 reply
arpeggiosweeper 124 wrote on April 9 2006, 02:01 pm

nice!!!

0 reply
m3tz 140 wrote on June 4 2006, 10:57 am

I think those sweeps are out..

0 reply
El Codyo 40 wrote on July 2 2006, 09:58 pm

Tune to C#?

guest
You may want to rate the tab now too:
select rating
Wanna post a correction for this tab? Suggest correction