Oops, an error
Loading. Please wait.

Ants Of The Sky Tab

version 1
version 1

Whole song

Interactive

5,771 views 1 this week
20 commentsread comments
1 2 3 4 5
x 11
add to favorites
launch autoscroll
font size
0
reset
how to read this tab
guitar tuner
Autoscroll
slow
fast
+/-
esc
set tempo
stop
Help us to improve Ultimate-Guitar.com Take our survey!
×
Author
Difficulty
intermediate
 this is the riff 1:23 into the song. my guitar is tuned to d and when i play it with
song it sounds exactly the same so here it is...


  |-------5-----5-----8-6-5------------------5---------5----|
  |-5-6-8---6-8---6-8-------8-6-5-6-5h6p5------8-5-6-8---5--|
  |----------------------------------------7---------------5|
  |---------------------------------------------------------|
  |---------------------------------------------------------|
  |---------------------------------------------------------|

  |-----------------------5-8-------------------------------|
  |-8-6-5-------5-----5-6-----------------------------------|
  |-------5---5-----5---------------------------------------|
  |---------7-----7-----------------------------------------|
  |---------------------------------------------------------|
  |---------------------------------------------------------|

  |-------13-13-------12h15p12------------------------------|
  |-11-15-------15-11----------13---------------------------|
  |-------------------------------12------------------------|
  |----------------------------------14---------------------|
  |-------------------------------------15------------------|
  |---------------------------------------------------------|

  any questions or comments i dont mess with email much so my aim is UNtouCHaBLe971 or
www.myspace.com/wowimsocooldude
Suggest correction
comments
print report bad tab
20 comments total. Showing first comments.
0 reply
guitarwannabe16 1,036 Aug 27, 2007 05:50 PM

You got my hopes up dude.

0 reply
carrotcake 1,997 Aug 27, 2007 05:56 PM

damn.... I saw this and thought it was gonna be the whole song lol, oh it's somethin

0 reply
carrotcake 1,997 Aug 29, 2007 04:07 PM

...and there's like 50 solos in this song, you should figure out the others

guest
You may want to rate the tab now too:
select rating
Wanna post a correction for this tab? Suggest correction