Oops, an error
Loading. Please wait.

Colorblind Tab

version 1
version 1

Whole song

Interactive

21,793 views 15 this week
6 commentsread comments
1 2 3 4 5
excellent!
x 7
add to favorites
launch autoscroll
font size
0
reset
how to read this tab
guitar tuner
Autoscroll
slow
fast
+/-
esc
set tempo
stop
Help us to improve Ultimate-Guitar.com Take our survey!
×
Author
Difficulty
novice
-------------------------------------------------------------------------------
                     Colourblind - Between the Buried and Me
-------------------------------------------------------------------------------
Tabbed by: Nybb
Email: jon.loubert@gmail.com

Great acoustic song by a spectacular band. There weren't any tabs for it on UG and it 
pretty easy so I figured I would give it a shot. The majority of the song is just one part 
over and over.

Tuning: Standard (EADGBE)

Intro:
  Am       Bb       F        Bb
e|-----0--------1-----------------1---|
B|----1--------3---------1-------3----|
G|--2--------3----------2------3------|
D|-2--------3---------3-------3-------|
A|0--------1---------3-------1--------|
E|------------------1-----------------|

After playing this once, one guitar continues with the chords and the second does 
like this:

e|----0-3-0-------------------------1---3----------------5-3-1-|
B|--1-------1-----1-------565-----1---1---1-----56565--8-5-5-1-|
G|2-----------2---2---0---555---2-----------2---555555-5-------|
D|-------------------------------------------------------------|
A|-------------------------------------------------------------|
E|-------------------------------------------------------------|

e|------8--------12--------8-10--8-----------------------------|
B|5-6-5----------10-10-10-10-10-10-8---8-10-8------------------|
G|5------------------9-10--------------9--9-9-10----9-10--9-5--|
D|--------------------------------------------10---10-10-10-7--|
A|-------------------------------------------------------------|
E|-------------------------------------------------------------|

Then comes the rest of the song, which is the same part the whole way through except for 
brief pause when the drums come in.

  Am               Bb               F               Bb
e|-------------------------5--------1-------1-------1-------1------|
B|--------8---------------------------1---1---1---1---1---1---1---1|
G|--5---5---5---5----5---5---5---5------2-------2-------2-------2--|
D|7---7-------7----7---7-------7----3------------------------------|
A|0-------------------------------------------------1--------------|
E|-----------------6-----------------------------------------------|
Suggest correction
comments
print report bad tab
6 comments total. Showing first comments.
+1 reply
TMA-2 1,041 wrote on June 20 2006, 05:14 am

eh, it's a cover of a counting crows song.

0 reply
slipknot91111 20 wrote on October 20 2006, 08:22 am

meh good tab cool song

0 reply
mikeniland 124 wrote on April 23 2007, 04:38 pm

This is far easier than moving from 5th position to first
Am Bb F Bb
e|--------3----------------5--------1-------1-------1-------1------|
B|--1---1---1---1----1---1---1----2---1---1---1---1---1---1---1---1|
G|2---2-------2----2---2-------2--------2-------2-------2-------2--|
D|----------------------------------3------------------------------|
A|0-------------------------------------------------1--------------|
E|-----------------1-----------------------------------------------|
It's still correct the other way
Keep up the good work
;)

guest
You may want to rate the tab now too:
select rating
Please do not post tabs as comments. Select "correction" instead!