Oops, an error
Loading. Please wait.

Desert Of Song Tab

version 1
version 1

Solo

Whole song

Interactive

3,096 views 1 this week
1 commentread comment
1 2 3 4 5
accurate
x 3
add to favorites
launch autoscroll
font size
0
reset
how to read this tab
guitar tuner
Autoscroll
slow
fast
+/-
esc
set tempo
stop
Help us to improve Ultimate-Guitar.com Take our survey!
×
Author
Difficulty
intermediate
-----------------------------------------------------------------------------
                Desert Of Song (Solo) – Between The Buried And Me
-----------------------------------------------------------------------------
Tabbed by: Skyler Hill
Email: skylerashimself1@hotmail.com

Tuning: C# Standard

e|---------------------------------------------------------------------------|
B|----------9-10--9---------9-10--7/8----------------------------------8-10--|
G|-9-11/13----------11-9-11------------9-7-9----7-9-9h10-9-7----7-9-10-------|
D|--------------------------------------------9--------------10--------------|
A|---------------------------------------------------------------------------|
E|---------------------------------------------------------------------------|


                                 ^1/2            |Let Ring|
e|--------------------------------17-14--------------15-----------------------|
B|-13--12-10-9----------15-15h17--------17-----15h17--------------------------|
G|----------------14h16--------------------16----------------14h16-12-14-12---|
D|-----------------------------------------------------------17----12------14-|
A|----------------------------------------------------------------------------|
E|----------------------------------------------------------------------------|


        |       Let Ring       |                         |Let Ring|
e|-------------------12----12----------------------------------------------|
B|-------------12-13----13-------12----------------------------8-----------|
G|-15\14-12-14----------------------15\14-12-----------------7-------9-12--|
D|-------------------------------------------12-14---12-9-10---------------|
A|-------------------------------------------------------------------------|
E|-------------------------------------------------------------------------|


       ^Bend >Release
e|---------------------------------------------------------------------------|
B|-10-12--------------8------------------------------------------------------|
G|-----------------------7h9p7--------------------------7/9----7-9-9/12-11p9-|
D|-----------------------------9----5---8\7-5---5h7p5--------9---------------|
A|--------------------------------7---7-------7-------7----------------------|
E|---------------------------------------------------------------------------|

e|---------------------------------------------------------------------------|
B|------------------10-13~~~~~-----------------------------------------------|
G|----9-11-12-11-12----------------------------------------------------------|
D|-12------------------------------------------------------------------------|
A|---------------------------------------------------------------------------|
E|---------------------------------------------------------------------------|


| ^1/2 Pre Bend half step
| /  slide up
| \  slide down
| h  hammer-on
| p  pull-off
| ~  vibrato
| +  harmonic
| x  Mute note
=============================================================================
Suggest correction
What's this?
You can suggest a correction to this tab. Community and Mods will review your correction and vote to approve or reject it.
comments
We did not receive enough feedback on this tab! Please rate:
print report bad tab
1 2 3 4 5
1 comment total.
0 reply
Ethnicx 153 wrote on November 9 2009, 11:45 am

needs moar slides/bends/hammer-ons.

guest
You may want to rate the tab now too:
select rating
Please do not post tabs as comments. Select "correction" instead!