Oops, an error
Loading. Please wait.

Mordecai tab

version 2
version 2

Whole song

Interactive

2,590 views 3 this week
2 commentsread comments
1 2 3 4 5
1 last vote to show rating
add to favorites
×
Save as Personal and add changes to this tab that will be seen only by you. Learn more ›
×
You can save this tab as Personal to edit and correct it or add notes. All changes will be seen only by you. Learn more »
launch autoscroll
font size
0
reset
how to read this tab
guitar tuner
edit
Autoscroll
slow
fast
+/-
esc
set tempo
stop
Author
Difficulty
Mordecai

Between the Buried and Me

Tuning: 1 ½ steps down (Db Gb B E Ab Db)

This song changes time signatures quite frequently, so I’ll lay them all out for you.

Day One - Theme 1
Guitar 1  
3/4        4/4                                 7/8
|----------|-----------------------------------|------------------------------|
|----17----|-----------------------------------|------------------------------|
|----15----|-----------------------------------|------------------------------|
|----------|-----------------------------------|------------------------------|
|----------|-3-h6p3-----------4-h7p4-----------|-3-h6p3-----------3-2-3-2-3-2-|
|----------|--------0-0-0-0-0--------0-0-0-0-0-|--------0-0-0-0-0-------------|
|                   PM------|        PM------|          PM------|             |
|Guitar 2                                                                     |
|----------|-----------------------------------|------------------------------|
|----------|-----------------------------------|------------------------------|
|----------|-----------------------------------|------------------------------|
|----------|-----------------------------------|------------------------------|
|----------|-----------------------------------|------------------------------|
|----------|-8h11p8-0-0-0-0-0-9h12p9-0-0-0-0-0-|-8h11p8-0-0-0-0-0-8-7-8-7-8-7-|
                    PM------|        PM------|          PM------|

Guitar 1 
4/4                                            7/8                         x2
|----------------------------------------------|------------------------------|
|----------------------------------------------|------------------------------|
|----------------------------------------------|------------------------------|
|----------------------------------------------|------------------------------|
|-3-h6p3-----------------4-h7p4----------------|-3-h6p3-----------------5-4-3-|
|---------0--0--0--0--0----------0--0--0--0--0-|---------0--0--0--0--0--3-2-1-|
|         PM----------|          PM----------|           PM-----------------| |
|Guitar 2                                                                     |
|----------------------------------------------|------------------------------|
|----------------------------------------------|------------------------------|
|----------------------------------------------|------------------------------|
|----------------------------------------------|------------------------------|
|----------------------------------------------|------------------------5-4-3-|
|-8h11p8--0--0--0--0--0--9h12p9--0--0--0--0--0-|-8h11p8--0--0--0--0--0--3-2-1-|
          PM----------|          PM----------|           PM-----------------|

Both Guitars
4/4
|------------------------------|---------------------------|
|------------------------------|---------------------------|
|------------------------------|---------------------------| x2
|------------------------------|---------------------------|
|--10--6--10--6--10--6--11--6--|--10--6--10--6--10--6--9\--|
|------------------------------|---------------------------|
   //  // //  // //  // //  //    //  // //  // //  // 

Guitar 1
4/4                                 7/8
|-----------------------------------|------------------------------|
|-----------------------------------|------------------------------|
|-----------------------------------|------------------------------|
|-----------------------------------|------------------------------|
|-3-h6p3-----------4-h7p4-----------|-3-h6p3-----------3-2-3-2-3-2-|
|--------0-0-0-0-0--------0-0-0-0-0-|--------0-0-0-0-0-------------|
|        PM------|        PM------|          PM------|             |
|Guitar 2                                                          |
|-----------------------------------|------------------------------|
|-----------------------------------|------------------------------|
|-----------------------------------|------------------------------|
|-----------------------------------|------------------------------|
|-----------------------------------|------------------------------|
|-8h11p8-0-0-0-0-0-9h12p9-0-0-0-0-0-|-8h11p8-0-0-0-0-0-8-7-8-7-8-7-|
         PM------|        PM------|          PM------|


Guitar 1 
4/4                                            7/8                         x2
<1.___________________________________________________________________________>
|----------------------------------------------|------------------------------|
|----------------------------------------------|------------------------------|
|----------------------------------------------|------------------------------|
|----------------------------------------------|------------------------------|
|-3-h6p3-----------------4-h7p4----------------|-3-h6p3-----------------5-4-3-|
|---------0--0--0--0--0----------0--0--0--0--0-|---------0--0--0--0--0--3-2-1-|
|         PM----------|          PM----------|           PM-----------------| |
|Guitar 2                                                                     |
|----------------------------------------------|------------------------------|
|----------------------------------------------|------------------------------|
|----------------------------------------------|------------------------------|
|----------------------------------------------|------------------------------|
|----------------------------------------------|------------------------5-4-3-|
|-8h11p8--0--0--0--0--0--9h12p9--0--0--0--0--0-|-8h11p8--0--0--0--0--0--3-2-1-|
          PM----------|          PM----------|           PM-----------------|

Guitar 1
6/4
<2.__________________________________________________>
|----------------------------------------------------|------------------------|
|----------------------------------------------------|------------------------|
|----------------------------------------------------|------------------------|
|----------------------------------------------------|------------------------|
|-3-h6p3-----------4-h7p4-----------3-h6p3-----------|---5-------4-------3----|
|--------0-0-0-0-0--------0-0-0-0-0--------0-0-0-0-0-|---3-------2-------1----|
|        PM------|        PM------|        PM----------------------------|    |     
|Guitar 2                                                                     |
|----------------------------------------------------|------------------------|
|----------------------------------------------------|------------------------|
|----------------------------------------------------|------------------------|
|----------------------------------------------------|------------------------|
|----------------------------------------------------|------5------4------3---|
|-8h11p8-0-0-0-0-0-9h12p9-0-0-0-0-0-8h11p8-0-0-0-0-0-|------3------2------1---|
         PM------|        PM------|        PM-----------------------------|

Both Guitars                                                 3/4
|--------------------|------------------|--------------------|----------------|
|--------------------|------------------|--------------------|----------------|
|--------------------|------------------|--------------------|----------------|
|--------------------|------------------|--------------------|----------------|
|10-6-10-6-10-6-11-6-|-10-6-10-6-10-6-9\|10-6-10-6-10-6-11-6-|-10-6-10-6-10-6-|
|--------------------|------------------|--------------------|----------------|
 // //// //// //// //  // //// //// //   // //// //// //// //  // //// //// //

Guitar Break
Guitar 1
4/4                   13/8
|---------------------|-----------------------------------|
|---------------------|----------------------6------------|
|---------------------|-----------------------------------|
|-----------------7h8-|p7-----6-----6h7h8/9-------9-------|
|-9----8--------------|---7-----6-------------------------|
|---------------------|-----------------------------------|
|                                                 ~~~~~~~~|
|Guitar 2                                                 |
|---------------------|-----------------------------------|
|---------------------|-----------------------------------|
|---------------------|---------------------10------------|
|-----------------7h8-|p7-----6-----6h7h8/9------9--------|
|-9----8--------------|---7-----6-------------------------|
|---------------------|-----------------------------------|
                                                 ~~~~~~~~

Theme 2
Guitar 1
6/4     |--3--| |--3--| |--3---|  |--3--| |--3---| |--3---|    x3
|-----------------------------------------------------------13\-|
|--------------------------------------------------10-12-13-----|
|---------------------------------9-11-12-11-12-14--------------|
|---------------7--8-10-10-11-13--------------------------------|
|-------7--8-10-------------------------------------------------|
|---------------------------------------------------------------|
|       PM---------------------------------------|          AH  | 
|Guitar 2                                                       |
|---------------------------------------------------------------|
|---------------------------------------------------------------|
|---------------------------------------------------------------|
|-8--7--6----------------5-----------------4-----------------3--|
|-6--5--4----------------3-----------------2-----------------1--|
|-6--5--4----------------3-----------------2-----------------1--|
  // // //               //                //                //

Guitar 1
5/4     |--3--| |--3--| |--3---|  |--3--| |--3---| |--3---|  3/4  
|------------------------------------------------------------|-13-------------|
|--------------------------------------------------10-12-13--|----------------|
|---------------------------------9-11-12-11-12-14-----------|----------------|
|---------------7--8-10-10-11-13-----------------------------|----------------|
|-------7--8-10----------------------------------------------|----------------|
|------------------------------------------------------------|----------------|
|       PM---------------------------------------|             ~~~~~~~~~~~~~~~|           
|Guitar 2                                                                     |
|------------------------------------------------------------|----------------|
|------------------------------------------------------------|----------------|
|------------------------------------------------------------|----------------|
|-8--7--6----------------5-----------------4-----------------|--3-------------|
|-6--5--4----------------3-----------------2-----------------|--1-------------|
|-6--5--4----------------3-----------------2-----------------|--1-------------|
  // // //               //                //                

Both Guitars
4/4
|---------------------------------|---------------------------------|
|---------------------------------|---------------------------------|
|---------------------------------|---------------------------------|
|---------------------------------|---------------------------------|
|---------2-3-4-5---------2-3-4-5-|---------3-4-5-6---------3-4-5-6-|
|-3-4-5-6---------3-4-5-6---------|-4-5-6-7---------4-5-6-7---------|

Both Guitars                      3/4
|---------------------------------|------------------------|
|---------------------------------|------------------------|
|---------------------------------|------------------------|
|---------4-5-6-7---------5-6-7-8-|----------6-7-8-9-6-----|
|-5-6-7-8---------6-7-8-9---------|-7-8-9-10---------------|
|---------------------------------|------------------------|
                                                     AH~~~~
Theme 3
Both Guitars
5/4                                      5/8
|----------------------------------------|---------------------|
|----------------------------------------|---------------------|
|----------------------------------------|---------------------|
|----------------------------9\8-----6\5-|---------------------|
|-2-2--2--2-2--2--2-3-4-7-6-10\9-----7\6-|-3-4-7-6-2-3---4-x-4-|
|-0-0--0--0-0--0--0-3-4-7-6--8\7--0--5\4-|-3-4-7-6-2-3-0-4-x-4-|
  PM----------------------|       PM       PM----------|
 
Both Guitars
9/8            Play this measure 3 times 5/8  
|----------------------------------------|---------------------|
|----------------------------------------|---------------------|
|----------------------------------------|---------------------|
|--------9\8-----6\5---------------------|---------------------|
|-3-4-6-10\9-----7\6-3-4-7-6-2-3---4-x-4-|--x--4---------------|
|-3-4-6--8\7--0--5\4-3-4-7-6-2-3-0-4-x-4-|--x--4---------------|
  PM--|       PM     PM----------|

Theme 4
Both Guitars
4/4                                                                   x4
|------------------------------------|----------------------------------|
|------------------------------------|----------------------------------|
|------------------------------------|------------------------------12\-|
|-----5----4--------7---\----------9-|-6--------------------------------|
|-----5----4--3-3/6---------------10-|-7----------------0-0-6\4-3-3-----|
|-0-0-3--0-2--------------0-0-0-0--8-|-5--6-4-3-0-0-4---0-0-6\4-3-3-----|
  PM|   PM          AH~~  PM----|         PM------| AH~~PM|         AH

Guitar 1
6/4
|------------------------------------|----------------------------------------|
|------------------------------------|-----------------------------------5-7--|
|------------------------------------|--------------5-7-8-7-5---------5-7----5|
|-----5----4------5----4------5----4-|--------6--6-7---------7-6-4-6-7--------|
|-----5----4------5----4------5----4-|-8-5-5-8-9------------------------------|
|-0-0-3--0-2--0-0-3--0-2--0-0-3--0-2-|----7-----------------------------------|
| PM|   PM    PM|   PM    PM|   PM                                            |
|Guitar 2                                                                     |
|------------------------------------|----------------------------------------|
|------------------------------------|----------------------------------------|
|------------------------------------|----------------------------------------|
|-----5----4------5----4------5----4-|--------------------------------0-40-7-4|
|-----5----4------5----4------5----4-|--------------3-5-6-5-3-----------------|
|-0-0-3--0-2--0-0-3--0-2--0-0-3--0-2-|---------2-2-2---------5-4-2-4-5--------|
  PM|   PM    PM|   PM    PM|   PM             PM----------------------------|

Guitar Break 2
Guitar 1
7/8                5/4                                                       
|--------------------|-----------------------------------|
|-10-8---------------|----------------------12-10-12^r12-|
|------8-7-5---------|------9h10p9----8------------------|
|------------6-7-----|-7-10--------10--------------------|
|--------------------|-----------------------------------|
|--------------------|-----------------------------------|
|              ~~~~~~~~               ~~~~~~             |
|Guitar 2                                                |
|--------------------|-----------------------------------|
|--------------------|-----------------------------------|
|--------------------|-----------------------------------|
|--------------7-----|----------------7------------------|
|--8-6-5-------7-----|----------------6------------------|
|--------8-7-5-5-----|----------------5------------------|
   PM--------|

Guitar 1                   5/8
|--------------------------|-------------------------|
|p10-----------------------|----11----13-------------|
|----11-----7-----10-------|-10----10----10-10/15----|
|--------------------12-13-|-------------------------|
|--------------------------|-------------------------|
|--------------------------|-------------------------|
|    ~~~~~~~~~~~~~                              ~~~~~|
|Guitar 2                                            |
|--------------------------|-------------------------|
|--------------------------|-------------------------|
|--------------------------|-------------------------|
|-----5------------5-------|-------------------------|
|-----5------------4-------|----4----4------4--------|
|-----3------------6-------|----6----6------6--------|

Day Two
Guitar 1                                                               x3
4/4        |--3--|          |--3--|   |--3--|                    |--3--| 
|-----------------------------------|------------------------------------|
|-----------------------------------|------------------------------------|
|-----------------------------------|------------------------------------|
|-7-----------------7---------------|----5--4----------------------------|
|-7--------7--7--7--6-------6--6--6-|-7--------5--------4--------4--4--4-|
|-5--------5--5--5--5-------5--5--5-|----------7--------6--------6--6--6-|
|          PM----|          PM----|                                      |
|Guitar 2                                                                |
| |--3--|  |--3--|  |--3--| |--3--|   |--3--|  |--3--|  |--3--|  |--3--| |
|-----------------------------------|------------------------------------|
|----------8----------------7-------|----------------------------9----12-|
|----9--------9--------8-------8----|-9-12-11----11-------10-------10----|
|-7----10-------10--7----10------10-|----------9----12--8----12----------|
|-----------------------------------|------------------------------------|
|-----------------------------------|------------------------------------|

Guitar 1                                                               
4/4        |--3--|          |--3--| 5/4  
|-----------------------------------|---------------------------------------|
|-----------------------------------|----------------------------4----------|
|-----------------------------------|-------------------3--5--6-----6--3-/5-|
|-7-----------------7---------------|----5--4--------4----------------------|
|-7--------7--7--7--6-------6--6--6-|-7-----------5-------------------------|
|-5--------5--5--5--5-------5--5--5-|----------7----------------------------|
|          PM----|          PM--------|        PM-------------------|       |
|Guitar 2                                                                   |
| |--3--|  |--3--|  |--3--| |--3--|   |--3--|  |--3--|  |--3---| |--3--|    |
|-----------------------------------|-------------------11-12-14-12-11-9/11-|
|----------8----------------7-------|-------------9-14----------------------|
|----9--------9--------8-------8----|-9-12-11--9----------------------------|
|-7----10-------10--7----10------10-|---------------------------------------|
|-----------------------------------|---------------------------------------|
|-----------------------------------|---------------------------------------|

Guitar 1 only
Breakdown
4/4                                    5/4
|------------|-----------------------8-|----11--------------------------------|
|---------12-|---10-13--10-13---10-----|-10----10-----------------------------|
|-7-/9-10----|-11-----10-----9-8--11---|----------8--------------/4---/7----7-|
|------------|-------------------------|------------10-7-----5-4----7----8----|
|------------|-------------------------|-----------------9-7------------------|
|------------|-------------------------|--------------------------------------|

Bridge 1
Guitar 1
4/4                                                                          x2
|------0-------0----------|----7--7----------0-----|--0-----------------------|
|----0---0------0--7----6-|-----5--5-------0---0---|----0---------------0-----|
|---5--------5---5---5----|-5----0--0----7---------|-7---7--------0---0---0---|
|--7--------7---------7---|---7--------5---------5-|--------5-4--0---0------0-|
|-0--------0--------------|-----------6---------6--|------7----2---1----------|
|-------------------------|------------------------|--------------------------|


Guitars 1 & 2                                                                x2
|------0-------0----------|----7--7----------0-----|--0-----------------------|
|----0---0------0--7----6-|-----5--5-------0---0---|----0---------------0-----|
|---5--------5---5---5----|-5----0--0----7---------|-7---7--------0---0---0---|
|--7--------7---------7---|---7--------5---------5-|--------5-4--0---0------0-|
|-0--------0--------------|-----------6---------6--|------7----2---1----------|
|-------------------------|------------------------|--------------------------|

Guitars 1 & 2                                                                x2
|------0-------0----------|-0-----0----------0-----|--0--------3------2-------|
|----0---0------0-------0-|---0----0-------1---1---|----1-----3--3---3--3-----|
|----------------0----0---|------0--0----0---------|-0---0--0------2------2---|
|---2--------2-------2----|-----2------2---------2-|--------------0---------0-|
|--2--------2------3------|----3------0---------0--|--------------------------|
|-0--------0--------------|------------------------|------3-------------------|

Guitar Solo 1
Guitar 1
|------------15-13h14-----------------------------|
|-----------------------15------------------15----|
|---------16---------------14-12----14/16------14-|
|-12h14-------------------------------------------|
|-------------------------------------------------|
|-------------------------------------------------|
|                                                 |
|Guitar 2                                         |
|------------0-----------------0------------------|
|---------0--------0--------------0-------------0-|
|------------------------------------0-------0----|
|-------2-------------------2-------------2-------|
|-----2------------------2--------------3---------|
|--0------------------0---------------------------|

Guitar 1     |---3----|
|--------------------------------12----15---/17----|
|--------------------------13-------13----13----13-|
|-12-12--------------12-------14-------------------|
|------------12h14------14-------------------------|
|--------------------------------------------------|
|--------------------------------------------------|
|Guitar 2                                          |
|--0----------0-------------------------0----------|
|-----0------------0-----------------1-----1-------|
|-----------0------------0--------0----------------|
|---------2--------------------2-----------------2-|
|-------3-------------------0-----------------0----|
|--------------------------------------------------|

Guitar 1               .    .       .
|----------19---19/20-19---17---17/19-17----|
|-(13)------x----x/-x--x----x----x/-x--x----|
|----------16---16/17-16---14---14/16-14----|
|-------------------------------------------|
|-------------------------------------------|
|-------------------------------------------|
|Guitar 2                                   |
|-----0-------------3------------2----------|
|-------1--------3-----3------3-----3-------|
|---0-----0---0-------------2----------2----|
|------------------------0----------------0-|
|-------------------------------------------|
|-----------3-------------------------------|

Guitar 1
  |---3----| |---3----| |---3----|
|-19p15-----------------15p14------------------------------------|
|---------17--------------------15-15----------------------------|
|------------16h17---19------------14h16-------------------12----|
|----------------------------------------------------12h14----14-|
|----------------------------------------------------------------|
|----------------------------------------------------------------|
|                                                                |
|Guitar 2                                                        |
|-----------------------0--------------------0-------------------|
|------------------0----------0-----------------0--------------0-|
|--------------------------------------------------0--------0----|
|-------------2---------------------------2--------------2-------|
|-------2------------------------------2--------------3----------|
|--0--------------------------------0----------------------------|

Guitar 1
7/4
|---------------------------------------------------12--------------------------12-15------------------|
|-12h13--p12-----------------------------12h13---15----15---13-12h13--p12----13-------13---------------|
|------------12----12/14-12-----------12----------------------------------14-------------12------------|
|---------------14-----------------14------------------------------------------------------------------|
|------------------------------------------------------------------------------------------------------|
|------------------------------------------------------------------------------------------------------|
|Guitar 2                                                                                              |
|--0-------------------0-----------------------0---------------------------0------------------3------2-|
|------0------------------0---------------1----------1-------------------------1------------3------3---|
|-------------------0--------0------0--------------------------------0--------------0-----0------2-----|
|----------------2---------------2------------------------------2------------------------------0-------|
|-------------3----------------0--------------------------0--------------------------------------------|
|---------------------------------------------------------------------------------------3--------------|

Guitar 1
7/8                                      3/4
|-------------------------------------14-|------------------------|
|-----------------15--------------15-----|-17---------------------|
|-11^r11^r11--12--------------14---------|------------------------|
|----------------------------------------|------------------------|
|----------------------------------------|------------------------|
|----------------------------------------|------------------------|
|                                          ~~~~~~~~~~~~~~~~~~~~~~~|
|Guitar 2                                                         |
|----------------------------------------|------------------------|
|----------------------------------------|------------------------|
|------------------7---------------------|------------------------|
|--5---------------5---------------------|--2---------------------|
|--5---------------3---------------------|--2-2-2-2-2-2-2-2-2-2-2-|
|--3-------------------------------------|--0-0-0-0-0-0-0-0-0-0-0-|
                                              PM----------------|
Bridge
Guitar 1
|------------------------|-----------------------|-----------------------|
|-15---------------------|-----------------------|-----------------------|
|------------------------|-----------------------|-----------------------|
|------------------------|-----------------------|-----------------------|
|------------------------|-----------------------|-----------------------|
|------------------------|-----------------------|-----------------------|
|  ~~~~~~~~~~~~~~~~~~~~~~
|Guitar 2
|------------------------|-----------------------|-----------------------|
|------------------------|-----------------------|-----------------------|
|--7--7-7-7-7-7--7-7-7-7-|-----------------------|-----------------------|
|--5--5-5-5-5-5--5-5-5-5-|-5--5-5-5-5-5--5-5-5-5-|-4--4-4-4-4-4--4-4-4-4-|
|--3--3-3-3-3-3--3-3-3-3-|-5--5-5-5-5-5--5-5-5-5-|-5--5-5-5-5-5--5-5-5-5-|
|------------------------|-3--3-3-3-3-3--3-3-3-3-|-2--2-2-2-2-2--2-2-2-2-|      

Guitar 2 only
|-----------------------|-----------------------|
|-----------------------|-----------------------|
|-----------------------|-7--7-7-7-7-7--7-7-7-7-|
|-2--2-2-2-2-2--2-2-2-2-|-5--5-5-5-5-5--5-5-5-5-|
|-2--2-2-2-2-2--2-2-2-2-|-3--3-3-3-3-3--3-3-3-3-|
|-0--0-0-0-0-0--0-0-0-0-|-----------------------|

Guitar 2
|-----------------------|-----------------------|
|-----------------------|-----------------------|
|-----------------------|-----------------------|
|-5--5-5-5-5-5--5-5-5-5-|-4--4-4-4-4-4--4-4-4-4-|
|-5--5-5-5-5-5--5-5-5-5-|-5--5-5-5-5-5--5-5-5-5-|
|-3--3-3-3-3-3--3-3-3-3-|-2--2-2-2-2-2--2-2-2-2-|

Guitar 1
3/4
|-------------------------------|-------------------------------|
|-------------------------------|-------------------------------|
|-------------------------------|-7-------7------7-------7------|
|-2-------2------2-------2------|-5--5-5--5-5--5-5--5-5--5-5--5-|
|-2--2-2--2-2--2-2--2-2--2-2--2-|-3--3-3--3-3--3-3--3-3--3-3--3-|
|-0--0-0--0-0--0-0--0-0--0-0--0-|-------------------------------|
|    PM|    PM-|    PM|    PM-|      PM|    PM-|    PM|    PM-| |
|Guitar 2                                                       |
|-------------------------------|-------------------------------|
|-8----8----8----8----8----8----|-8----8----8----8----8----8----|
|---11---11---11---11---11---11-|---11---11---11---11---11---11-|
|-------------------------------|-------------------------------|
|-------------------------------|-------------------------------|
|-------------------------------|-------------------------------|

Guitar 1
|-------------------------------|-------------------------------|
|-------------------------------|-------------------------------|
|-------------------------------|-------------------------------|
|-5-------5------5-------5------|-4-------4------4-------4------|
|-5--5-5--5-5--5-5--5-5--5-5--5-|-5--5-5--5-5--5-5--5-5--5-5--5-|
|-3--3-3--3-3--3-3--3-3--3-3--3-|-2--2-2--2-2--2-2--2-2--2-2--2-|
|    PM|    PM-|    PM|    PM-|      PM|    PM-|    PM|    PM-| |
|Guitar 2                                                       |
|-------------------------------|-------------------------------|
|-8----8----8----8----8----8----|10---10---10---10---10---10----|
|---11---11---11---11---11---11-|---12---12---12---12---12---12-|
|-------------------------------|-------------------------------|
|-------------------------------|-------------------------------|
|-------------------------------|-------------------------------|

Guitar 1
|-------------------------------|-------------------------------|
|-------------------------------|-------------------------------|
|-------------------------------|-7-------7------7-------7------|
|-2-------2------2-------2------|-5--5-5--5-5--5-5--5-5--5-5--5-|
|-2--2-2--2-2--2-2--2-2--2-2--2-|-3--3-3--3-3--3-3--3-3--3-3--3-|
|-0--0-0--0-0--0-0--0-0--0-0--0-|-------------------------------|
|    PM|    PM-|    PM|    PM-|      PM|    PM-|    PM|    PM-| |
|Guitar 2                                                       |
|-------------------------------|-------------------------------|
|12---12---12---12---12---12----|12---12---12---12---12---12----|
|---14---14---14---14---14---14-|---14---14---14---14---14---14-|
|-------------------------------|-------------------------------|
|-------------------------------|-------------------------------|
|-------------------------------|-------------------------------|

Guitar 1
|-------------------------------|-------------------------------|
|-------------------------------|-------------------------------|
|-------------------------------|-------------------------------|
|-5-------5------5-------5------|-4-------4------4-------4------|
|-5--5-5--5-5--5-5--5-5--5-5--5-|-5--5-5--5-5--5-5--5-5--5-5--5-|
|-3--3-3--3-3--3-3--3-3--3-3--3-|-2--2-2--2-2--2-2--2-2--2-2--2-|
|    PM|    PM-|    PM|    PM-|      PM|    PM-|    PM|    PM-| |
|Guitar 2                                                       |
|-------------------------------|-------------------------------|
|12---12---12---12---12---12----|13---13---15---17---17---19----|
|---14---14---14---14---14---14-|---16---16---17---19---19---21-|
|-------------------------------|-------------------------------|
|-------------------------------|-------------------------------|
|-------------------------------|-------------------------------|

Guitar Solo 2
Guitar 1
3/4
|-15p14------------------------------|------------------------------------|
|-------15------------------------15-|----------15------------------------|
|----------14h16-16------------------|-12\11/12----11/12-12---------------|
|------------------------------------|------------------------------------|
|------------------------------------|------------------------------------|
|------------------------------------|------------------------------------|
|Guitar 2                                                                 |
|------------------------------------|------------------------------------|
|------------------------------------|------------------------------------|
|------------------------------------|--7-----7--7--7--7--7----7--7--7--7-|
|--2-----2--2--2--2--2----2--2--2--2-|--5-----5--5--5--5--5----5--5--5--5-|
|--2-----2--2--2--2--2----2--2--2--2-|--3-----3--3--3--3--3----3--3--3--3-|
|--0-----0--0--0--0--0----0--0--0--0-|------------------------------------|

Guitar 1                                                                  x4
|-------------------14h15-------------|-------------------------------14-17-|
|-------------12h15-------15----------|-----------------------------15------|
|-12p11----14-------------------------|-14-12-11-12-11------------14--------|
|-------12----------------------------|----------------12-------16----------|
|-------------------------------------|-------------------12--17------------|
|-------------------------------------|-------------------------------------|
|Guitar 2                                                                   |
|-------------------------------------|-------------------------------------|
|-------------------------------------|-------------------------------------|
|-------------------------------------|-------------------------------------|
|--5-----5--5--5--5--5-----5--5--5--5-|--4-----4--4--4--4--4-----4-----4--4-|
|--5-----5--5--5--5--5-----5--5--5--5-|--5-----5--5--5--5--5-----5-----5--5-|
|--3-----3--3--3--3--3-----3--3--3--3-|--2-----2--2--2--2--2-----2-----2--2-|

Guitar 1
|-15p14------------------------------|------------------------------------|
|-------15---------------------------|------------------------------------|
|----------14h16-16------------------|(16)--------------------------------|
|------------------------------------|------------------------------------|
|------------------------------------|------------------------------------|
|------------------------------------|------------------------------------|
|Guitar 2                                                                 |
|------------------------------------|------------------------------------|
|------------------------------------|------------------------------------|
|------------------------------------|--7-----7--7--7--7--7----7--7--7--7-|
|--2-----2--2--2--2--2----2--2--2--2-|--5-----5--5--5--5--5----5--5--5--5-|
|--2-----2--2--2--2--2----2--2--2--2-|--3-----3--3--3--3--3----3--3--3--3-|
|--0-----0--0--0--0--0----0--0--0--0-|------------------------------------|

Guitar 1
|------------------------|---------------------------|
|------------------------|---------------------------|
|-16---------------------|-14---------------16-16/17-|
|------------------------|---------------------------|
|------------------------|---------------------------|
|------------------------|---------------------------|
|Guitar 2                                            |
|------------------------|---------------------------|
|------------------------|---------------------------|
|------------------------|---------------------------|
|--5--5-5-5-5-5--5-5-5-5-|--4--4-4-4-4-4--4--4--4--4-|
|--5--5-5-5-5-5--5-5-5-5-|--5--5-5-5-5-5--5--5--5--5-|
|--3--3-3-3-3-3--3-3-3-3-|--2--2-2-2-2-2--2--2--2--2-|

Guitar 1
|------------------------|------------------------|
|------------------------|------------------------|
|-16---------------------|-12---------------------|
|------------------------|------------------------|
|------------------------|------------------------|
|------------------------|------------------------|
|Guitar 2                                         |
|------------------------|------------------------|
|------------------------|------------------------|
|------------------------|--7--7-7-7-7-7--7-7-7-7-|
|--2--2-2-2-2-2--2-2-2-2-|--5--5-5-5-5-5--5-5-5-5-|
|--2--2-2-2-2-2--2-2-2-2-|--3--3-3-3-3-3--3-3-3-3-|
|--0--0-0-0-0-0--0-0-0-0-|------------------------|


Guitar 1
|------------------------|---------------------------|
|------------------------|---------------------------|
|-16---------------------|-14---------------16-16/17-|
|------------------------|---------------------------|
|------------------------|---------------------------|
|------------------------|---------------------------|
|Guitar 2                                            |
|------------------------|---------------------------|
|------------------------|---------------------------|
|------------------------|---------------------------|
|--5--5-5-5-5-5--5-5-5-5-|--4--4-4-4-4-4--4--4--4--4-|
|--5--5-5-5-5-5--5-5-5-5-|--5--5-5-5-5-5--5--5--5--5-|
|--3--3-3-3-3-3--3-3-3-3-|--2--2-2-2-2-2--2--2--2--2-|

Guitar 1
|------------------------|------------------------|
|------------------------|------------------------|
|-16---------------------|-12---------------------|
|------------------------|------------------------|
|------------------------|------------------------|
|------------------------|------------------------|
|Guitar 2                                         |
|------------------------|------------------------|
|------------------------|------------------------|
|------------------------|------------------7-----|
|------------------2-----|----------5-------------|
|----------2-------------|--3---------------------|
|--0---------------------|------------------------|

Guitar 1
|------------------------|---------------------------|
|------------------------|---------------------------|
|------------------------|-11---14--16------16-16/17-|
|-12---------------------|---------------------------|
|------------------------|---------------------------|
|------------------------|---------------------------|
|Guitar 2                                            |
|------------------------|---------------------------|
|------------------------|---------------------------|
|------------------------|---------------------------|
|------------------5-----|--------------4------------|
|----------5-------------|-------5-------------------|
|--3---------------------|--2------------------------|

Outro
Guitar 1
4/4
|------------------|------------------|------------------|----------------|
|------------------|------------------|------------------|----------------|
|-16---------------|-16---------------|------------------|----------------|
|------------------|------------------|------------------|----------------|
|------------------|------------------|------------------|----------------|
|------------------|------------------|------------------|----------------|
|Guitar 2                                                                 |
|------------------|------------------|------------------|----------------|
|------------------|------------------|------------------|----------------|
|------------------|------------7-----|------------------|----------------|
|------------2-----|-------5----------|------------5-----|------------4h5-|
|-------2----------|--3---------------|-------5----------|-------5--------|
|--0---------------|------------------|--3---------------|--2-------------|

Guitar 2                                                                 
|------------------|------------------|------------------|----------------|
|------------------|------------------|------------------|----------------|
|------------------|------------7-----|------------------|----------------|
|------------2-----|-------5----------|------------5-----|------------4h5-|
|-------2----------|--3---------------|-------5----------|-------5--------|
|--0---------------|------------------|--3---------------|--2-------------|

===============================================================================
h     =hammer-on
p     =pull-off
/     =slide up
\     =slide down
PM    =palm mute
.     =staccato note
()    = tied note
|-3-| = triplet
AH    = artificial harmonic
~     =vibrato
//    =tremolo picking
^     =1\2 bend
r     =release bend

            
            
Suggest correction
Creating personal tab
Creating personal tab
You can edit any tab online and save it as your Personal.

You can edit, replace or remove any tab part or add personal notes – all changes will be seen only by you.

Personal tabs can be accessed anytime from any device, even offline.
Learn more »
Give kudos to tab author, rate the tab!
1 2 3 4 5
comments
print report bad tab
2 comments total.
0 reply
carrotcake 2,007 May 22, 2007 03:55 PM

the time signature for that fast drum intro is 5/4

0 reply
randyaintdead82 20 May 31, 2010 01:17 PM

i can tell this is the power tab lmao, but thats ok because i dont have it anymore so...good job ;)

guest
You may want to rate the tab now too:
select rating
Wanna post a correction for this tab? Suggest correction