Oops, an error
Loading. Please wait.

Primer Bass Tab

version 1
version 1

Whole song

Interactive

1,238 views 1 this week
no commentswrite comment
1 2 3 4 5
please rate
add to favorites
launch autoscroll
font size
0
reset
guitar tuner
Autoscroll
slow
fast
+/-
esc
set tempo
stop
Help us to improve Ultimate-Guitar.com Take our survey!
×
Author
Difficulty
advanced
Tuning: C# Standard
high to low (E, B, F#, C#)


|---------------------|
|---------------------|
|-4~---2~---0~---2~---|
|---------------------|
                         x2
|---------------------|
|---------------------|
|------2~--------2~---|
|-0~--------2~--------|

|------------------------------------|
|------------------------------------|
|-0~------2~-----------0-0-0-2~------|
|-----------------4~-----------------|

|---------------------|
|---------------------|
|------2~---0~---2~---|
|-0~------------------|x2

|-------------------|
|-------------------|
|-4~------0~---2~---|
|-------------------|

|---------------------|
|---------------------|
|------2~---0~---2~---|
|-0~------------------|

|-------------------------------|
|-------------------------------|
|-4--0-----3--------------------|
|-------2-----4--0--1---1-4---4-|


|-----------|
|-----------|
|-0~--------|
|------1~---|x2
                       x4
|-----------------|
|-----------------|
|-----------------|
|-4~------0~------|


|-----------|
|-----------|
|-3~--------|
|------4~---|x2
                        x2
|-----------------|
|-----------------|
|-2~--------------|
|---------3~------|


|---------------------------------|
|-------------------------1-------|
|-2-----1-----------2---2---2-----|
|---0-3---0-0-2-3-0---0-------4-0-|

|---------------|
|---------------|
|-------2---1---|
|-0-2-3---0---0-|

|-------------------------------|
|-------------------------------|
|-------2---1-------------------|
|-0-2-3---0---0-3h4p3p0-3h4p3p0-|

|---------------|
|---------------|
|-------2---1---|
|-0-2-3---0---0-|

|-------------------------4-7-6---|
|-----------------------5-------8-|
|-------2---1---------5-----------|
|-0-2-3---0---0-0-0-6-------------|

|--------------------------------|
|--------------------------------|
|-------2---1-------3-2----------|
|-0-2-3---0---0-0-0-----0-4-0-1--|

|---------------------------------|
|---------------------------------|
|-------2---1---------------------|
|-0-2-3---0---0-0-3h4p3p0-3h4p3p0-|

|--------------------------------------|
|--------------------------------------|
|-------2---1-----------2-5-2----------|
|-0-2-3---0---0-0-4-7-4-------1-4-1-4--|

|-----------------|
|-----------------|
|-------2---1-----|
|-0-2-3---0---0-0-|


|---------4-7-6---|
|---8---5-------8-|
|-7---5-----------|
|-----------------|x4

|-----------2-1---|
|-----7---4-----3-|
|-5-8---5---------|
|-----------------|x4


|------------------------------------|
|------------------------------------|
|------------------------------------|
|-0--0--0--0--0-0--0--0--0--0--0-0-0-|x4

|-------------------------------------------------------------|
|-----------------------------------------------------5-------|
|-------------------------5-----4--5-2p1-2p1------------4-----|
|-0--0-0-0-0--4--3--0-3-6---3-6--------------3-2-3-0------3---|


|--------------------------------------------------------------|
|-6----------------------------------------------------5-------|
|---5-----6-------2---------1-------2h5-2p1-2p1----------4-----|
|-----4-7---4-0-1---3-0-1-0---1-0-3-------------2-3-0------3---|

|---------------------------------------------------------|
|-6-------------------------------------------------6-----|
|---5-----6-------2---------1-----------4--1----------5---|
|-----4-7---4-0-1---3-0-1-0---1-0-1--0--------0--1------4-|

|-----------------------|
|----------4------------|
|-3-----2---------------|
|----0--------1-1-1--0--|

|---------------------------------------------------------|
|-6-------------------------------------------------6-----|
|---5-----6-------2---------1-----------4--1----------5---|
|-----4-7---4-0-1---3-0-1-0---1-0-1--0--------0--1------4-|

|--------------------------|
|----------4---------------|
|-3-----2------------------|
|----0--------1-1-1--0-1-2-|x5


|---------------------------------------------------------------|
|---------------------------------------------------------------|
|-3-----2----------2--------------------------------1-----2-----|
|----0-----3--2-------1--0--------000-1-0--4--3--0-----2-----1--|

|-------------------------------------------------|
|-------------------------------------------------|
|-------------1-----------------------1-----2-----|
|-0--4--3--0-----2--000-1-0--4--3--0-----2-----1--|x4

|-------------------------------------------------|
|-------------------------------------------------|
|-------------1--------7--------------------------|
|-0--4--3--0-----2--0-----6~----7x----------------|


|---------------------|
|---------------------|
|-4~---2~---0~---2~---|
|---------------------|
                         x2
|---------------------|
|---------------------|
|------2~--------2~---|
|-0~--------2~--------|

|------------------------------------|
|------------------------------------|
|-0~------2~-----------0-0-0-2~------|
|-----------------4~-----------------|

|---------------------|
|---------------------|
|------2~---0~---2~---|
|-0~------------------|x2

|-------------------|
|-------------------|
|-4~------0~---2~---|
|-------------------|

|---------------------|
|---------------------|
|-0~---2~--------2~---|
|-----------0~--------|x2

|---------------------|
|---------------------|
|-0~---2~---4~--------|
|---------------------|

|-----------------------------------------------|
|-----------------------------------------------|
|-0~---2~---4--0-----3--------------------------|
|-----------------2-----4--0--1--0--1--4--0--1--|

|-------------------------------------|
|-10-14-10----------------------------|
|----------12-------11-------------11-|
|-------------12-10-----12--8--12-----|


Circusy guitar outro.
Suggest correction
Give kudos to tab author, rate the tab!
1 2 3 4 5
comments
print report bad tab
guest
You may want to rate the tab now too:
select rating
Wanna post a correction for this tab? Suggest correction