Oops, an error
Loading. Please wait.

Primer Tab

version 2
version 2

Intro

Whole song

Interactive

2,094 views 1 this week
no commentswrite comment
1 2 3 4 5
please rate
add to favorites
launch autoscroll
font size
0
reset
how to read this tab
guitar tuner
Autoscroll
slow
fast
+/-
esc
set tempo
stop
Help us to improve Ultimate-Guitar.com Take our survey!
×
Author
Difficulty
intermediate
C#--------------------------------------------------------|     
G#-----------------------9-10-9----9----10-9--------------|     
E#------------8-9-8-9-11--------11---11-----11-9---8-11---|     
B----11----11------------------------------------9--------| x2  
F#------11------------------------------------------------|     
C#--------------------------------------------------------|     

C#------------------------------------------------11-7------------|
G#-----------------------------9------10-9---12--------10-7-------|
E#---9-8-6---8-9-8-9-11---8-11---11-9------9----------------8-----|
B----------7------------9-------------------------------------9---|
F#----------------------------------------------------------------|
C#----------------------------------------------------------------|

C#----------------------------------4-5---------------|
G#----------4h5-4-------------5---------7-4-------4---|
E#-------4--------4---4-6h8-6-----6---------4---4-----|
B------6---6--------4-----------7-------------4-------| x2
F#---7------------------------------------------------|
C#----------------------------------------------------|

C#---------------4-------------------4-5-7-5-------------|
G#---5-----4-5-7---7-5-4---------5-----------7-4---------|
E#-------6---------------6-4---6---6-------------4-------|
B------6---------------------7---------------------4-----|
F#---------------------------------------------------6---|
C#-------------------------------------------------------|

C#----------------------------------4-5------------------------------|
G#----------4h5-4-------------5---------7-4-------4----5-----4-------|
E#-------4--------4---4-6h8-6-----6---------4---4--------6-----5-----|
B------6---6--------4-----------7-------------4------------7-----6---|
F#---7---------------------------------------------------------------|
C#-------------------------------------------------------------------|
Suggest correction
Give kudos to tab author, rate the tab!
1 2 3 4 5
comments
print report bad tab
guest
You may want to rate the tab now too:
select rating
Please do not post tabs as comments. Select "correction" instead!