Oops, an error
Loading. Please wait.

Roboturner Bass Tab

version 1
version 1

Solo

Interactive

1,442 views 1 this week
no commentswrite comment
1 2 3 4 5
please rate
add to favorites
launch autoscroll
font size
0
reset
guitar tuner
Autoscroll
slow
fast
+/-
esc
set tempo
stop
Help us to improve Ultimate-Guitar.com Take our survey!
×
Author
Difficulty
intermediate
--------------------------
Updated: 5/12/07
I changed all three riffs.
--------------------------

This song has about 3 bass solos in it.

Tuning: C# Standard
high to low E B F# C# G#


Riff 1 (2:39)
*Play these eighth notes as a triplet quater eighth.
|-10/11-10-----------|
|-9-/10-9------------|
|--------------------|
|----------7-8-------|
|--------------7-5-6-|

                 |-3-|
|-10/11-10-------------|
|-9-/10-9--------------|
|------------8---6-7-8-|
|----------7---7-------|
|----------------------|

|-10/11-10-----------|
|-9-/10-9------------|
|--------------------|
|----------7-8-------|
|--------------7-5-6-|

                 |-3-|
|-10/11-10-------------|
|-9-/10-9--------------|
|------------8---------|
|----------7-----------|
|----------------6-6-6-|


Riff 2 (3:03)
*Play this really fast.
|-------------------16-|
|-------------12-15----|
|----------14----------|
|----10-13-------------|
|-12-------------------|


Riff 3 (4:24)
*This is played eight times by yourself then you 
keep repeating it with the guitars until the end
of the song. Then at 6:51 you play Riff 1 again.
E |---------------------|
B |---------------------|
F#|---------------------|
C#|-6--0--------1-------|
G#|-------3~------2-0-1-|


Riff 1 (6:51)
*Play these eighth notes as a triplet quater eighth.
|-10/11-10-----------|
|-9-/10-9------------|
|--------------------|
|----------7-8-------|
|--------------7-5-6-|
                           x3
                 |-3-|
|-10/11-10-------------|
|-9-/10-9--------------|
|------------8---6-7-8-|
|----------7---7-------|
|----------------------|

|-10/11-10-----------|
|-9-/10-9------------|
|--------------------|
|----------7-8-------|
|--------------7-5-6-|

                 |-3-|
|-10/11-10-------------|
|-9-/10-9--------------|
|------------8---------|
|----------7-----------|
|----------------6-6-6-|
Suggest correction
Give kudos to tab author, rate the tab!
1 2 3 4 5
comments
print report bad tab
guest
You may want to rate the tab now too:
select rating
Wanna post a correction for this tab? Suggest correction