Oops, an error
Loading. Please wait.

Selkies The Endless Obesession Tab

version 2
version 2

Solo

7,063 views 1 this week
1 commentread comment
1 2 3 4 5
x 3
add to favorites
launch autoscroll
font size
0
reset
how to read this tab
guitar tuner
Autoscroll
slow
fast
+/-
esc
set tempo
stop
Help us to improve Ultimate-Guitar.com Take our survey!
×
Db :-----------------------------|----------------------------------------|
Ab :-----------------------------|----------------------------------------|
E  :-------12----12h14-----------|16h17p16--------------------------------|
B  :12/14----14------------------|----------17-14--------/17-19-----------|
Gb :-----------------------------|-----------------17-15--------17-15-----|
Db :-----------------------------|----------------------------------------|

Db :------------------------------------------------|
Ab :------------------------------------------------|
E  :------14-16-17-16-14----------------------------|
B  :---17----------------17-15-14-------------12/14-|
Gb :17----------------------------17-14-15-17-------|
Db :------------------------------------------------|

Db :-------------------------------|------------------------------|
Ab :-------------------------------|------------------------------|
E  :14-16-16-/17\------------------|------12----------------------|
B  :--------------17-17-/19--------|---14----15-14----------------|
Gb :-------------------------------|15-------------15-------------|
Db :-------------------------------|-------------------15-15-/17--|

Db :-------------------------------------------------------|
Ab :------------------------------------15h17p15-----------|
E  :-----------------------------14h16------------17-14-17-|
B  :------------------12h14/17-----------------------------|
Gb :-------10h12/15----------------------------------------|
Db :10h12--------------------------------------------------|

Db :--------------------------------|
Ab :--------------------------------|
E  :14/16---------------------------|
B  :-------17----------12-/14-------|
Gb :----------17-15-----------------|
Db :----------------17--------------|

Db :------------------------------------------|
Ab :------18p17p15------15--------------------|
E  :<12>------------17-----17-14-12-14-14/16--|
B  :------------------------------------------|
Gb :------------------------------------------|
Db :------------------------------------------|

Db :-----------------------------------------------|
Ab :-----------------------------------------------|
E  :-----------------------------------------------|
B  :12-15-14-17-15-19-17-21-12-14-12---------------|
Gb :---------------------------------14-12---------|
Db :---------------------------------------15-12-10|

Db :-------------------------------|
Ab :-------------------------------|
E  :-------------------------------|
B  :-------------------------------|
Gb :-------------------------------|
Db :8-10-8-3-5-8-5-5-8-10-12-15\---|

piano

Db :-----------------------|-----------------------------------------|-----------------------------|
Ab :-----------------------|-----------------------------------------|-----------------------------|
E  :-----------------------|--------------------/14------------------|-----------------------------|
B  :-----------------------|-----------------14-----14-12-----12-----|10p9-------------------------|
Gb :10-7-10/12-------------|-------10h12/15----------------15--------|-----10/12-------------------|
Db :-----------------------|10h12------------------------------------|------------10/12\-----------|
Suggest correction
Give kudos to tab author, rate the tab!
1 2 3 4 5
comments
print report bad tab
1 comment total.
0 reply
breadtruck 244 Oct 22, 2011 07:22 AM

Great man good job. I love the clean solo

guest
You may want to rate the tab now too:
select rating
Wanna post a correction for this tab? Suggest correction