Oops, an error
Loading. Please wait.

Selkies The Endless Obsession Bass Tab

version 1
version 1

Whole song

6,075 views 3 this week
4 commentsread comments
1 2 3 4 5
x 5
add to favorites
launch autoscroll
font size
0
reset
guitar tuner
Autoscroll
slow
fast
+/-
esc
set tempo
stop
Help us to improve Ultimate-Guitar.com Take our survey!
×
Difficulty
advanced
Tabbed By : Jesse Blanchette
e-mail: Jalb001@aol.com

Tuning: Standard C# . low to high: C#,F#,B,E

G|---------------------------------------------------------------------------|
D|----9----10----------------------------------------------------------------|
A|0 7---7-----10 7-----------------------------------------------------------|
E|---------------------------------------------------------------------------|       Intro riff 1

G|---------------------------------------------------------------------------|
D|-12-------------------------10-------12h14---------------------------------|
A|---12-------9-10--3-------10----14--------12-------------------------------|
E|-----14---10--------1-/ 12--------12---------------------------------------|
      Fill One


G|---------------------------------------------------------------------------|
D|-14--12--10------14-12-10--------------------------------------------------|
A|---12--12--12 10---------12-10---------------------------------------------|
E|---------------------------------------------------------------------------|
    Intro riff 2

G|---------------------------------------------------------------------------|
D|-12h14--------7-7----------------------------------------------------------|
A|-----------10-----5--------------------------------------------------------|
E|------8/--8---------8/-------12p010p08p0-----------------------------------|
   Bass Solo

G|---------------------------------------------------------------------------|
D|---------------------------------------------------------------------------|
A|-7---5--3----7-5-3---------------------------------------------------------|
E|---5--5--5-3------5-3------------------------------------------------------|
   Intro Riff 3

G|---------------------------------------------------------------------------|
D|-5-------------------------------------------------------------------------|
A|--7352-2-0------23---------------------------------------------------------|
E|------3------234-----------------------------------------------------------|
   Fill 2

G|---------------------------------------------------------------------------|
D|---------------------------------------------------------------------------|
A|-4---2---0-----4-2-0------4---2---0----4-----34----------------------------|
E|---2---2---2-0--------2-0---2---2--2-0----234------------------------------|

G|--------------------------------------------------------------------------|
D|--------------------------------------------------------------------------|
A|-5--3--1-----5-3-1-----5--3--1------5-------------------------------------|
E|---3--3--3-1-------3-1---3--3--3-1----------------------------------------|
  Intro Riff 3

G|-----------2---------------------------------------------------------------|
D|---------41-41-------------------------------------------------------------|
A|----34563-----3------------------------------------------------------------|
E|-345-----------------------------------------------------------------------|
    Fill 3

G|-----------2--------85--5------2-------------------------------------------|
D|---------41-41--------74-74--41-41-2---------------------------------------|
A|----34563-----3-6----------63----------------1----------------3-2----------|
E|-345--------------------------------0------------3----4---0----0-----------|
   Fill 4

G|---------------------------------------------------------------------------|
D|---------------------------------------------------------------------------|
A|---3p2p1----3-2-----3p2p1---3-2----1-------3p2p1--3-2---3p2p1--------------|
E|-0------2----0---0-------2---0--0---3-4-0-------2--0--0-------222-22--3-0--|
   Verse Riff 1
G|---------------------------------------------------------------------------|
D|---------------------------------------------------------------------------|
A|---------------5-3-4-0-2-3-------------------------------------------------|
E|-00-023--00-023------------222---------------------------------------------|
   verse 2

G|----------------------------------------------------------------------------|
D|----------------------------------------------------------------------------|
A|--------------------54-54-54-54---------------------------------------------|
E|-222-222-222-222---2--2--2--2-----------------------------------------------|
    Fill 5

G|----------( The rest of the speed riff i havent got yet...)----------------|
D|---------------------------------------------------------------------------|
A|---45-43---45-43/--45-43---45-------45-43-5------4---1---------------------|
E|-23--3--423--3---23--3--423--2226/23--3--4-432345-432-321------------------|
   Half of speed riff

G|---------------------------------------------------------------------------|
D|---------------------------------------------------------------------------|
A|--45----45--45-------------------------------------------------------------|
E|23----23--23---------------------------------------------------------------|
 Quick Riff 1

G|----------------------------------------------------------------------------|
D|----------------------------------------------------------------------------|
A|----------------------------------------------------------------------------|
E|000-000-000-000-------------------------------------------------------------|
  Fill 6

G|---------------------------------------------------------------------------|
D|---------------------------------------------------------------------------|
A|4-3--4-3--4-3--------------------------------------------------------------|
E|-3-1--3-1--3-1-------------------------------------------------------------|
   Quick Riff 2

G|---------------------------------------------------------------------------|
D|---------------------------------------------------------------------------|
A|4---3---1------------------------------------------------------------------|
E|--3---1---0----------------------------------------------------------------|
  Fill 7

G|---------------------------------------------------------------------------|
D|--4------------------------------------------------------------------------|
A|---3-3--2------------------------------------------------------------------|
E|23--4-33-------------------------------------------------------------------|
   Tricky Riff


G|---------------------------------------------------------------------------|
D|---------------------------------------------------------------------------|
A|---------------------------------------------------------------------------|
E|00-0-0-0--00-0-0-0-000100-0-0-0-00-0-0-0-000133-3-3-3-33-3-3-3-44-4-4-4----|

G|---------------------------------------------------------------------------|
D|------------------------2--------2-----------------------------------------|
A|--------------------------3-5-----32---------------------------------------|
E|000100-----00-----00----------4-5---5--------------------------------------|
   Breakdown

G|----------------------------------------------------------------------------|
D|12-------------------10------12h14-10---------------------------------------|
A|--12-----910-3-----10----14----------10---0---------------------------------|
E|----14-10-----1/-12--------12----------12-----------------------------------|
  Fill 8


G|-----------------------------5-4--------------------------------------------|
D|---------------------------------7-5----------------------------------------|
A|-------------------------------------3--------------------------------------|
E|-5-------1-------3-------5--------------------------------------------------|
   Bridge ( Clean )

G|---------------------------------------------------------------------------|
D|----------------------------------------------7----------------------------|
A|---------------------------------------------------------------------------|
E|-5----1----3-----5------5----1-----3------5-------5------1------3-----5----|
  Clean solo

G|---------------------------------------5-4---------------------------------|
D|-------------------------------------------7-5-----------------------------|
A|-----------------------------------------------3---------------------------|
E|5-5-5-5--5-1-1-1-1-1-1-3-3-3-3--3-5-5-5------------------------------------|
   Distorion Bridge

G|---------------------------------------------------------------------------|
D|---------------------------------------------------------------------------|
A|---------------------------------------------------------------------------|
E|6-6-6-6-6-8-8-8-88-88-8-6-66-6-6-66-1-1-1-11-1-3-3-3-3-33------------------|
   Variation To Distorion Bridge


G|-------5-4-2---------5-4-2---------2------------2--------------------------|
D|-------------------------------------5-3---------5-3-----------------------|
A|3-3-3-3------3-3-33-3------0-0-0-0-------0-0-00----------------------------|
E|---------------------------------------------------------------------------|

G|----------------------------------5-4--------------------------------------|
D|------------------5-------------------7-5----------------------------------|
A|-------3-----------5----------------------3--------------------------------|
E|1-1-1-1-1-1--3-3-3--3-3--5-55-55-5----------3-3-3-3-3-3-3-3----------------|

Sweeping Solo riff and Outro

=============================================================================
=============================================================================

This is my first tab attempt at a really hard sog to play. Sorry i couldn't figure out 
rest of the wicked fast shred riff. This is a challenging song and tough on the left 
GoodLuck.
Suggest correction
comments
print report bad tab
4 comments total. Showing first comments.
0 reply
vegaboy10 156 Aug 19, 2006 12:05 AM

could use some work. it's good, but extremely hard to follow. maybe some better sequencing.

0 reply
xchiefx 10 Oct 29, 2006 03:22 AM

cool. i know the bassist, he's in my clan in joint ops. i'll ask if this is correct lmao

0 reply
ESP_bass 10 Apr 08, 2007 08:40 PM

Everything for the end/solo is wrong, but for you first attempt most of the tab is decent, maybe you should start with somethng easier.

guest
You may want to rate the tab now too:
select rating
Wanna post a correction for this tab? Suggest correction