Oops, an error
Loading. Please wait.

Selkies The Endless Obsession Tab

version 3
version 3

Whole song

71,726 views 48 this week
15 commentsread comments
1 2 3 4 5
x 29
add to favorites
launch autoscroll
font size
0
reset
how to read this tab
guitar tuner
Autoscroll
slow
fast
+/-
esc
set tempo
stop
Help us to improve Ultimate-Guitar.com Take our survey!
×
Author
Difficulty
Tuning
advanced
C# F# B E G# C#
Selkies: The Endless Obsession
Between the Buried and Me
in C# Standard

At the request of quite a few people, I am posting a version of selkies in C# Standard.

I still think the other tab is easier to play but, whichever your prefer.

Guitar I(Paul)- C#F#BEG#C# (Lead Guitar)
Guitar II(Dusty)- C#F#BEG#C# (Rhythm Guitar)
Guitar III(Paul)- C#F#BEG#C# (Harmony)
Guitar IV(Paul)- C#F#BEG#C# (Clean during Verse 2)
Guitar V(Dusty)- C#F#BEG#C# (Acoustic)

Order of song
[Intro]
[Verse Part 1]
[Verse Part 2]
[Verse Part 3]
[Verse Part 4]
[Verse Part 5]
[Verse Part 6]
[Verse Part 7]
[Bridge]
[Piano]
[Verse 2]
[Clean Solo]
[Ending Solo]
[Part 1]
[Part 2]
[Harmony Part]
[Pick Sweeping]
[Closing of Song]

Guitar I Paul Lead Guitar

[Intro]
        W                H.
C#|----------------------------------||
F#|----------------------------------||
B |*--------------------------------*||
E |*--------------------------------*||
G#|----------------------------------||
C#|----------------------------------||

      E  E  E  E   E   E  E  E  E  E  E   E   E  E   3x  E  E  E  E  E  E  E  E
C#|--------------------------------------------------||--------------------------|
F#|--------------------------------------------------||--------------------------|
B |*------------------------------------------------*||--7--------------0--------|
E |*--------9-----10---------------9-----10---------*||-----7--------4-----------|
G#|---0--7-----0------10--7--0--7-----0------10--7---||--------9--5--------3-----|
C#|--------------------------------------------------||-----------------------1--|

     E  E  E  Q    E  E  E     E  E  E  E  E  E  E  E  E  E  E  E  E
C#|-------------------------|-----------------------------------------|
F#|----------------------3--|-----------------------------------------|
B |-----------5----4--------|--9-----7-----5--------9-----7-----5-----|
E |-----2--5----------2-----|-----7-----7-----7--5-----7-----7-----7--|
G#|-------------------------|-----------------------------------------|
C#|--L----------------------|-----------------------------------------|

     E  E  E  E  E  E  E  E  E  E  E  E  E  E
C#|--------------------------------------------|
F#|--------------------------------------------|
B |--9-----7-----5--------9-----------5--------|
E |-----7-----7-----7--5-----7--5--7-----7--5--|
G#|--------------------------------------------|
C#|--------------------------------------------|

      E  E  E  E   E   E  E  E  E  E  E   E   E  E
C#|--------------------------------------------------||
F#|--------------------------------------------------||
B |*------------------------------------------------*||
E |*--------9-----10---------------9-----10---------*||
G#|---0--7-----7------10--7--7--7-----0------10--7---||
C#|------------5-------------5-----------------------||

     E  E  E  E   E   E  E  E  E  E  E   E   E  E     E  E  E  E  E  E  E  E
C#|------------------------------------------------|--------------------------|
F#|------------------------------------------------|--------------------------|
B |------------------------------------------------|--7--------------0--------|
E |--------9-----10---------------9-----10---------|-----7--------4-----------|
G#|--0--7-----7------10--7--7--7-----0------10--7--|--------9--5--------3-----|
C#|-----------5-------------5----------------------|-----------------------1--|

     E  E  E  Q    E  E  E     E  E  E  E  E  E  E  E  E  E  E  E  E
C#|-------------------------|-----------------------------------------|
F#|----------------------3--|-----------------------------------------|
B |-----------5----4--------|--9-----7-----5--------9-----7-----5-----|
E |-----2--5----------2-----|-----7-----7-----7--5-----7-----7-----7--|
G#|-------------------------|-----------------------------------------|
C#|--L----------------------|-----------------------------------------|

     E  E  E  E  E  E  E  E  E  E  E  E  E  E  E
C#|-----------------------------------------------|
F#|-----------------------------------------------|
B |--9-----7-----5--------9-----------7-----5-----|
E |-----7-----7-----7--5-----7--5--7-----7-----7--|
G#|-----------------------------------------------|
C#|-----------------------------------------------|

     E  E  E  E  E  E  E  E  E  E  E  E  E
C#|-----------------------------------------|
F#|-----------------------------------------|
B |--9-----7-----5--------9-----7-----5-----|
E |-----7-----7-----7--5-----7-----7-----7--|
G#|-----------------------------------------|
C#|-----------------------------------------|

     E  E  E  E  E  E  E  E  E  E  E  E  E
C#|-----------------------------------------|
F#|--------------------------------------5--|
B |--9-----7-----5--------9-----------5-----|
E |-----7-----7-----7--5-----7--5--7--------|
G#|-----------------------------------------|
C#|-----------------------------------------|

     E  E  E  E  E  E  E  E  E  E  E  E  E
C#|-----------------------------------------|
F#|--8-----6-----4--------8-----6-----4-----|
B |-----5-----5-----5--3-----5-----5-----5--|
E |-----------------------------------------|
G#|-----------------------------------------|
C#|-----------------------------------------|

     E  E  E  E  E  E  E  E  E  E  E  E  E
C#|-----------------------------------------|
F#|--8-----6-----4--------8-----6-----4-----|
B |-----5-----5-----5--3-----5-----5-----5--|
E |-----------------------------------------|
G#|-----------------------------------------|
C#|-----------------------------------------|

     E  E  E  E  E  E  E  E  E  E  E  E  E
C#|-----------------------------------------|
F#|-----------------------------------------|
B |--9-----7-----5--------9-----7-----5-----|
E |-----7-----7-----7--5-----7-----7-----7--|
G#|-----------------------------------------|
C#|-----------------------------------------|

     E  E  E  E  E  E  E  E  E  E  E  E  E  E  E
C#|-----------------------------------------------|
F#|-----------------------------------------------|
B |--9-----7-----5--------9-----------7-----5-----|
E |-----7-----7-----7--5-----7--5--7-----7-----7--|
G#|-----------------------------------------------|
C#|-----------------------------------------------|

     E  E  E  E  E  E  E  Q    E  E  E  E  E
C#|-------------------------------------------|
F#|-------------------------------------------|
B |--4--0-------------------------------------|
E |--------2--4--0----------------------------|
G#|-----------------2--3--0-------------2--3--|
C#|----------------------------2--3--4--------|

     E  E  E  E  E  E  E  E  E  E  E  E  E  E
C#|--------------------------------------------|
F#|--------------------------------------------|
B |--------------------------------------------|
E |--------------------------------------------|
G#|--4-----2-----0--------4-----2-----0--------|
C#|-----2-----2-----2--0-----------------2--0--|

     E  E  E  E  E  E  E  E  E  E  E  E  E  E
C#|--------------------------------------------|
F#|--------------------------------------------|
B |--------------------------------------------|
E |--------------------------------------------|
G#|--4-----2-----0--------4-----------2--3--4--|
C#|-----2-----2-----2--0-----2--3--4-----------|

     E  E  E  E  E  E  E  E  E  E  E  E  E  E
C#|--------------------------------------------|
F#|--------------------------------------------|
B |--------------------------------------------|
E |--------------------------------------------|
G#|--5-----3-----1--------5-----3-----1--------|
C#|-----3-----3-----3--1-----------------3--1--|

     E  E  E  E  E  E  E  E  E  E  E  E  E  E     E  E  E  E  E  E  E  E
C#|--------------------------------------------|--------------------------|
F#|--------------------------------------------|--------------------------|
B |--------------------------------------------|--------------2-----------|
E |--------------------------------------------|--1-----4--1-----4--1--0--|
G#|--5-----3-----1--------5-----------3--4--5--|-----3--------------------|
C#|-----3-----3-----3--1-----3--4--5-----------|--------------------------|

     E  E  E  E  E  E  E  E  E  E  E  E  E  E
C#|--------------------------------------------|
F#|--------------------------------------------|
B |--------------------------------------------|
E |--------------------------------------------|
G#|--4-----2-----0--------4-----2-----0--------|
C#|-----2-----2-----2--0-----------------2--0--|

     E  E  E  E  E  E  E  E  E  E  E  E  E  E
C#|--------------------------------------------|
F#|--------------------------------------------|
B |--------------------------------------------|
E |--------------------------------------------|
G#|--4-----2-----0--------4-----------2--3--4--|
C#|-----2-----2-----2--0-----2--3--4-----------|

     E  E  E  E  E  E  E  E  E  E  E  E  E  E
C#|--------------------------------------------|
F#|--------------------------------------------|
B |--------------------------------------------|
E |--------------------------------------------|
G#|--5-----3-----1--------5-----3-----1--------|
C#|-----3-----3-----3--1-----------------3--1--|

     E  E  E  E  E  E  E  E  E  E  E  E  E  E
C#|--------------------------------------------|
F#|--------------------------------------------|
B |--------------------------------------------|
E |--------------------------------------------|
G#|--5-----3-----1--------5-----------3--4--5--|
C#|-----3-----3-----3--1-----3--4--5-----------|

     E  E  E  E  E  E  E  E  E  E  H
C#|-----------------------------------------|
F#|-----------------------------------------|
B |--------------2--------------2-----------|
E |--1-----4--1-----4--1--4-----1-----------|
G#|-----3-----------------3-----------------|
C#|-----------------------------------------|

     E  E  E  E  E  E  E  E  E  E  E  E  E  E     W
C#|--------------------------------------------|-------------------|
F#|--4--1--------1-----------------------------|-------------------|
B |--------2--------2-----------------2--------|--9----------------|
E |-----------4--------1--------4--1-----4--1--|--9----------------|
G#|-----------------------3--0-----------------|--7----------------|
C#|--------------------------------------------|-------------------|

     W                   Q.     Q.     Q       E  Q.     E  E  E  E
C#|--L----------------|---------------------|--L---------------------|
F#|--L----------------|---------------------|--L---------------------|
B |-------------------|--9------9------9----|-----9------------------|
E |--L----------------|--8------5------6----|--L--9------5-----2-----|
G#|-------------------|--7------7------7----|-----7---------2-----2--|
C#|-------------------|---------------------|------------------------|

[Verse Part 1]
              ^
     H        H           H        E  E  E  E     W
C#|--------------------|--L--------------------|-------------------|
F#|--------------------|--L--------------------|-------------------|
B |-----------9--------|-----------------------|-------------------|
E |-----------9--------|--L--------------------|-------------------|
G#|-----------7--------|-----------3--2-----4--|--L----------------|
C#|--0-----------------|-----------------3--2--|--L----------------|

                                      ^
     H        E  E  E  E     H        H           H        E  E  E  E
C#|-----------------------|--------------------|--L--------------------|
F#|-----------------------|--------------------|--L--------------------|
B |-----------------------|-----------9--------|-----------------------|
E |-----------5-----2-----|-----------9--------|--L--------------------|
G#|--L-----------2-----2--|-----------7--------|-----------3--2-----4--|
C#|--L--------------------|--0-----------------|-----------------3--2--|

     W                   H        E  E  E  E     Q    Q.     Q.
C#|-------------------|-----------------------|---------------------|
F#|-------------------|-----------------------|---------------------|
B |-------------------|-----------------------|-------9------9------|
E |-------------------|-----------5-----2-----|---------------------|
G#|--L----------------|--L-----------2-----2--|--2----7------7------|
C#|--L----------------|--L--------------------|--0------------------|

     Q    Q    E  E  E  E     W                   H        E  E  E  E
C#|------------------------|-------------------|-----------------------|
F#|------------------------|-------------------|-----------------------|
B |--9---------------------|-------------------|-----------------------|
E |------------------------|-------------------|-----------5-----2-----|
G#|--7---------3--2-----4--|--L----------------|--L-----------2-----2--|
C#|-------0----------3--2--|--L----------------|--L--------------------|

              ^
     H        H           H        E  E  E  E     E  E  E  E  Q.     E
C#|--------------------|--L--------------------|------------------------|
F#|--------------------|--L--------------------|------------------------|
B |-----------9--------|-----------------------|------------------------|
E |-----------9--------|--L--------------------|------------------------|
G#|-----------7--------|-----------3--2-----4--|-----4-----4---------4--|
C#|--0-----------------|-----------------3--2--|-----2-----2---------2--|

                                            PM    PM
     E  E  Q.     Q.        H.           E  E     Q    H.
C#|----------------------|---------------------|--------------------|
F#|----------------------|---------------------|--------------------|
B |---------------4------|---------------------|--------------------|
E |----------------------|---------------------|--------------------|
G#|-----4----------------|--2------------L--2--|--2-----------------|
C#|-----2---------3------|--0------------L--0--|--0-----------------|

[Verse Part 2]
      E  Q    Q    Q    E     E  Q    Q    Q    E     E  Q    E  E  Q    E
C#|------------------------|-----------------------|------------------------|
F#|------------------------|-----------------------|------------------------|
B |*-----------------------|-----------------------|------------------------|
E |*-----------------------|-----------------------|--6--5----5-------------|
G#|---4--2----4----5----5--|--4--2----4----5----5--|--4--3----3--7--6----6--|
C#|---2--0----2----3----3--|--2--0----2----3----3--|-------------5--4----4--|

     E  Q    E  E  E  E  E       H           E  Q    Q    Q    E
C#|--------------------------||-----------|-----------------------|
F#|--------------------------||-----------|-----------------------|
B |-------------------------*||-----------|-----------------------|
E |--4--5----5--------------*||--3--------|-----------------------|
G#|--2--3----3--4--4--4--4---||--3--------|--4--2----4----5----5--|
C#|-------------2--2--2--2---||--1--------|--2--0----2----3----3--|

                                                                PM   PM   PM
                                                                |----3----|
    E  Q    Q    Q    E     E  Q    E  E  Q    E     E  Q    E  Q    Q    Q
C#|-----------------------|------------------------|----------------------------|
F#|-----------------------|------------------------|----------------------------|
B |-----------------------|------------------------|----------------------------|
E |-----------------------|--6--5----5-------------|--4--5----5-----------------|
G |--4--2----4----5----5--|--4--3----3--7--6----6--|--2--3----3--4----4----4----|
C#|--2--0----2----3----3--|-------------5--4----4--|-------------2----2----2----|

     E  Q    Q    Q    E     E  Q    Q    Q    E     E  Q    E  E  Q    E
C#|-----------------------|-----------------------|------------------------|
F#|-----------------------|-----------------------|------------------------|
B |-----------------------|-----------------------|------------------------|
E |-----------------------|-----------------------|--6--5----5-------------|
G#|--4--2----4----5----5--|--4--2----4----5----5--|--4--3----3--7--6----6--|
C#|--2--0----2----3----3--|--2--0----2----3----3--|-------------5--4----4--|

                                  PM   PM   PM   PM   PM   PM      PM   PM   PM
                |----3----|       |----3----|    |----3----|       |----3----|
     E  Q    E  Q    Q    Q       Q    Q    Q    Q    Q    Q       Q    Q    Q
C#|----------------------------|--------------------------------|-----------------|
F#|----------------------------|--------------------------------|-----------------|
B |----------------------------|--------------------------------|-----------------|
E |--4--5----5-----------------|--------------------------------|-----------------|
G#|--2--3----3--4----4----4----|--4----4----4----4----4----4----|--4----4----4----|
C#|-------------2----2----2----|--2----2----2----2----2----2----|--2----2----2----|


[Verse Part 3]
                                   PM PM PM PM PM PM       PM PM PM PM PM
     S E  S S E  S    E  Q.        S  S  S  S  S  S  S S S S  S  S  S  S  S S
C#|----------------|------------|---------------------------------------------|
F#|----------------|------------|---------------------------------------------|
B |----------------|------------|---------------------------------------------|
E |----------------|------------|---------------------------------------------|
G#|---------x-5--5-|--4---------|--------------------2-5-4-4--------------3-2-|
C#|--1-0--4-x------|------------|--1--1--0--0--4--4-----------3--3--2--2------|

       PM PM PM
     S S  S  S  S S S S S S S S E   E
C#|------------------------------------|
F#|------------------------------------|
B |------------------------------------|
E |------------------------------------|
G#|----7--7--5--7-5---7----------------|
C#|--0--------------7---7-6-4-2-4\--1--|

     PM PM PM PM PM PM       PM PM PM PM PM
     S  S  S  S  S  S  S S S S  S  S  S  S  S S
C#|---------------------------------------------|
F#|---------------------------------------------|
B |---------------------------------------------|
E |---------------------------------------------|
G#|--------------------2-5-4-4--------------3-2-|
C#|--1--1--0--0--4--4-----------3--3--2--2------|

       PM PM PM
     S S  S  S  S S S S S S S S E   E
C#|------------------------------------|
F#|------------------------------------|
B |------------------------------------|
E |------------------------------------|
G#|----7--7--5--7-5---7----------------|
C#|--0--------------7---7-6-4-2-4\--1--|

     PM PM PM PM PM PM       PM PM PM PM PM
     S  S  S  S  S  S  S S S S  S  S  S  S  S S
C#|---------------------------------------------|
F#|---------------------------------------------|
B |---------------------------------------------|
E |---------------------------------------------|
G#|--------------------2-5-4-4--------------3-2-|
C#|--1--1--0--0--4--4-----------3--3--2--2------|

       PM PM PM
     S S  S  S  S S S S S S S S E   E
C#|------------------------------------|
F#|------------------------------------|
B |------------------------------------|
E |------------------------------------|
G#|----7--7--5--7-5---7----------------|
C#|--0--------------7---7-6-4-2-4\--1--|

     PM PM PM PM PM PM       PM PM PM PM PM
     S  S  S  S  S  S  S S S S  S  S  S  S  S S
C#|---------------------------------------------|
F#|---------------------------------------------|
B |---------------------------------------------|
E |---------------------------------------------|
G#|--------------------2-5-4-4--------------3-2-|
C#|--1--1--0--0--4--4-----------3--3--2--2------|

       PM PM PM                                              ^
     S S  S  S  S S S S S S S S E   E     S E  E  E  S E  E  Q
C#|------------------------------------|--------------------------|
F#|------------------------------------|--------------------------|
B |------------------------------------|--------------------------|
E |------------------------------------|----------6--7-6-----4----|
G#|----7--7--5--7-5---7----------------|--3-2--5--5--5-4----------|
C#|--0--------------7---7-6-4-2-4\--1--|--1-0--4--4--5-4-----1----|

[Verse Part 4]
     S S S S E  S S S S S S S S E     S S S S E  S S S S S S S S E
C#|--------------------------------|--------------------------------|
F#|--------------------------------|--------------------------------|
B |--------------------------------|--------------------------------|
E |--------------------------------|--------------------------------|
G#|------5-6--------5-6-----3-5----|------5-6--------5-6-----3-5----|
C#|--3-4--------3-4-----3-4--------|--3-4--------3-4-----3-4--------|

     S S S S E  S S S S S S S S E     S S S S E  S S S S S S S S E
C#|--------------------------------|--------------------------------|
F#|--------------------------------|--------------------------------|
B |--------------------------------|--------------------------------|
E |--------------------------------|--------------------------------|
G#|------5-6--------5-6-----3-5----|------5-6--------5-6-----3-5----|
C#|--3-4--------3-4-----3-4--------|--3-4--------3-4-----3-4--------|

     S S S S E  S S S S S S S S E     S S S S E  S S S S S S S S E
C#|--------------------------------|--------------------------------|
F#|--------------------------------|--------------------------------|
B |--------------------------------|--------------------------------|
E |--------------------------------|--------------------------------|
G#|------5-6--------5-6-----3-5----|------5-6--------5-6-----3-5----|
C#|--3-4--------3-4-----3-4--------|--3-4--------3-4-----3-4--------|

                                      PM PM PM PM PM PM PM PM
     S S S S E  S S S S S S S S E     S  E  S  E  S  E  S  E  S S S S
C#|--------------------------------|----------------------------------|
F#|--------------------------------|--------------------------------0-|
B |--------------------------------|------------------------------1---|
E |--------------------------------|--------------------------0-3-----|
G#|------5-6--------5-6-----3-5----|-----2-----2-----2-----2----------|
C#|--3-4--------3-4-----3-4--------|--0--0--0--0--0--0--0--0----------|

[Verse Part 5]
     PM PM PM PM    PM PM PM PM PM PM PM PM
     S  S  S  S  E  S  S  S  S  S  S  S  S  E
C#|--------------------------------------------|
F#|--------------------------------------------|
B |--------------------------------------------|
E |--------------------------------------------|
G#|-----------------------------2--5-----------|
C#|--4--1--4--1-----4--1--4--1--------4--1-----|

     PM PM PM PM    PM PM   PM PM   PM PM   PM
     S  S  S  S  E  S  S  S S  S  S S  S  S S
C#|--------------------------------------------|
F#|--------------------------------------------|
B |-----------------------------------------1--|
E |----------------------------0----1--4-------|
G#|-----------------------2-------2-------2----|
C#|--4--1--4--1-----4--1----4------------------|

     S S S S E.  E  S S S S E.  Q    S E.  Q
C#|---------------------------------------------|
F#|---------------------------------------------|
B |---------------------1-3---------------------|
E |--0-------1---1--1-3-----1---1---------------|
G#|----2-----0---0----------0---0----x-6---6----|
C#|------4-1-------------------------x-0---0----|

     PM PM PM PM    PM PM PM PM PM PM PM PM
     S  S  S  S  E  S  S  S  S  S  S  S  S  E
C#|--------------------------------------------|
F#|--------------------------------------------|
B |--------------------------------------------|
E |--------------------------------------------|
G#|-----------------------------2--5-----------|
C#|--4--1--4--1-----4--1--4--1--------4--1-----|

     PM PM PM PM    PM PM PM PM PM PM PM PM
     S  S  S  S  E  S  S  S  S  S  S  S  S  S S
C#|---------------------------------------------|
F#|---------------------------------------------|
B |---------------------------------------------|
E |---------------------------------------------|
G#|-----------------------------2--5--------2-5-|
C#|--4--1--4--1-----4--1--4--1--------4--1------|

[Verse Part 6]
     S S S S  E.  E  S S S S  E.  Q    S     S S E  E  E  E  E  S S S S
C#|---------------------------------------|-----------------------------|
F#|------------------------0--------------|---------------------------0-|
B |----------------------1----------------|-------------------------1---|
E |--0-3-0---/1---1--0-3-----\1---1----L\-|------------3--------0-3-----|
G#|--------0-/0---0----------\0---0----L\-|---------1-----1-------------|
C#|---------------------------------------|--0-1-2-----------2----------|

     S S E  E  E  E  E  S S S S    S S E  E  E  E  E  S S S S
C#|-----------------------------|-----------------------------|
F#|---------------------------0-|---------------------------0-|
B |-------------------------1---|-------------------------1---|
E |------------3--------0-3-----|------------3--------0-3-----|
G#|---------1-----1-------------|---------1-----1-------------|
C#|--0-1-2-----------2----------|--0-1-2-----------2----------|

     S S E  E  E  E  E  S S S S    S S E  E  E  E  E  S S S S
C#|-----------------------------|-----------------------------|
F#|---------------------------0-|---------------------------0-|
B |-------------------------1---|-------------------------1---|
E |------------3--------0-3-----|------------3--------0-3-----|
G#|---------1-----1-------------|---------1-----1-------------|
C#|--0-1-2-----------2----------|--0-1-2-----------2----------|

     S S E  E  E  E  E  S S S S    S S E  E  E  E  E  S S S S
C#|-----------------------------|-----------------------------|
F#|---------------------------0-|---------------------------0-|
B |-------------------------1---|-------------------------1---|
E |------------3--------0-3-----|------------3--------0-3-----|
G#|---------1-----1-------------|---------1-----1-------------|
C#|--0-1-2-----------2----------|--0-1-2-----------2----------|

     S S E  E  E  E  E  S S S S    E.  Q.     E.  Q.     E.  Q    E.
C#|-----------------------------|-------------------------------------|
F#|---------------------------0-|-------------------------------------|
B |-------------------------1---|-------------------------------------|
E |------------3--------0-3-----|--1---1------------------------------|
G#|---------1-----1-------------|--1---1------2---2------2---2--------|
C#|--0-1-2-----------2----------|-------------6---6------0---0--------|

[Verse Part 7]
     PM  PM            PM  PM            PM  PM            PM  PM  PM  PM
     E.  E.  Q.        E.  E.  Q.        E.  E.  Q.        E.  E.  E.  E.
C#|-----------------|-----------------|-----------------|------------------|
F#|-----------------|-----------------|-----------------|------------------|
B |-----------------|-----------------|-----------------|------------------|
E |-----------------|-----------------|-----------------|------------------|
G#|--2---2----------|--2---2----------|--2---2----------|--2---2---2---2---|
C#|--0---0----------|--0---0----------|--0---0----------|--0---0---0---0---|

     PM  PM            PM  PM            PM  PM            PM  PM  PM  PM
     E.  E.  Q.        E.  E.  Q.        E.  E.  Q.        E.  E.  E.  E.
C#|-----------------|-----------------|-----------------|------------------|
F#|-----------------|-----------------|-----------------|------------------|
B |-----------------|-----------------|-----------------|------------------|
E |-----------------|-----------------|-----------------|------------------|
G#|--2---2----------|--2---2----------|--2---2----------|--2---2---2---2---|
C#|--0---0----------|--0---0----------|--0---0----------|--0---0---0---0---|

     PM  PM            PM  PM            PM  PM            PM  PM  PM  PM
     E.  E.  Q.        E.  E.  Q.        E.  E.  Q.        E.  E.  E.  E.
C#|-----------------|-----------------|-----------------|------------------|
F#|-----------------|-----------------|-----------------|------------------|
B |-----------------|-----------------|-----------------|------------------|
E |-----------------|-----------------|-----------------|------------------|
G#|--5---5----------|--5---5----------|--5---5----------|--5---5---5---5---|
C#|--4---4----------|--4---4----------|--4---4----------|--4---4---4---4---|

     PM  PM            PM  PM            PM  PM            PM    PM
     E.  E.  Q.        E.  E.  Q.        E.  E.  Q.        E  E  E  E
C#|-----------------|-----------------|-----------------|--------------|
F#|-----------------|-----------------|-----------------|--1-----------|
B |-----------------|-----------------|-----------------|--2-----2-----|
E |-----------------|-----------------|-----------------|--------3-----|
G#|--5---5----------|--5---5----------|--5---5----------|--------------|
C#|--4---4----------|--4---4----------|--4---4----------|--------------|

     PM                                 PM PM    PM
     E  E  E  E     E  S    E  E  E     E  E  E  E   E   E  E
C#|--------------|-------|-----------|-------------------------|
F#|--------------|-------|-----------|-------------------------|
B |--------------|-------|-----------|-------------------------|
E |--3-----0-----|--2----|--3--------|--------9-----10---------|
G#|--5-----2-----|--3----|-----3--2--|--0--7-----7------10--7--|
C#|--------------|-------|-----------|-----------5-------------|

[Bridge]
     PM PM    PM
     E  E  E  E   E   E  E
C#|-------------------------|
F#|-------------------------|
B |-------------------------|
E |--------9-----10---------|
G#|--0--7-----7------10--7--|
C#|-----------5-------------|

     PM PM    PM            PM PM    PM
     E  E  E  E   E   E  E  E  E  E  E   E   E  E
C#|------------------------------------------------|
F#|------------------------------------------------|
B |------------------------------------------------|
E |--------9-----10---------------9-----10---------|
G#|--0--7-----7------10--7--0--7-----7------10--7--|
C#|-----------5----------------------5-------------|

     PM PM    PM            PM PM    PM
     E  E  E  E   E   E  E  E  E  E  E   E   E  E
C#|------------------------------------------------|
F#|------------------------------------------------|
B |------------------------------------------------|
E |--------9-----10---------------9-----10---------|
G#|--0--7-----7------10--7--0--7-----7------10--7--|
C#|-----------5----------------------5-------------|

     PM PM    PM            PM PM    PM
     E  E  E  E   E   E  E  E  E  E  E   E   E  E     E  E  E  E  E  E  E  E
C#|------------------------------------------------|--------------------------|
F#|------------------------------------------------|--------------------------|
B |------------------------------------------------|--7--------------0--------|
E |--------9-----10---------------9-----10---------|-----7--------4-----------|
G#|--0--7-----7------10--7--0--7-----7------10--7--|--------9--5--------3-----|
C#|-----------5----------------------5-------------|-----------------------1--|

     E  E  E  Q    E  E  E     E  E  E  E  E  E  E  E
C#|-------------------------|--0-----------------------|
F#|-----------1----0-----3--|--------------1-----------|
B |--------0----------------|-----2--0--2-----2-----4--|
E |-----2-------------3-----|--------------------2--2--|
G#|-------------------------|-----------------------0--|
C#|--L----------------------|--------------------------|

[Piano Part]
     W
C#|-------------------|
F#|--L----------------|
B |-------------------|
E |--L----------------|
G#|--L----------------|
C#|-------------------|

     W                   W                   W                   W
C#|-------------------|-------------------|-------------------|-------------------|
F#|--L----------------|--L----------------|--L----------------|-------------------|
B |-------------------|-------------------|-------------------|-------------------|
E |-------------------|-------------------|-------------------|-------------------|
G#|--L----------------|--L----------------|--L----------------|-------------------|
C#|--L----------------|--L----------------|--L----------------|-------------------|

     W                   W                   W
C#|-------------------|-------------------|-------------------|
F#|-------------------|-------------------|-------------------|
B |-------------------|-------------------|-------------------|
E |-------------------|-------------------|-------------------|
G#|-------------------|-------------------|-------------------|
C#|-------------------|-------------------|-------------------|

[Verse 2]
     W                   W                   W
C#|--------------------|-------------------|-------------------|
F#|--------------------|-------------------|-------------------|
B |*-------------------|-------------------|-------------------|
E |*-------------------|-------------------|-------------------|
G#|--------------------|-------------------|-------------------|
C#|--------------------|-------------------|-------------------|

     W                     W                   E  Q    E   H
C#|--------------------||-------------------|-----5----Ls--0--------|
F#|--------------------||-------------------|-----------------------|
B |-------------------*||-------------------|-----------------------|
E |-------------------*||-------------------|-----------------------|
G#|--------------------||-------------------|-----------------------|
C#|--------------------||-------------------|-----------------------|

     E.  E.   E.  Q     S S  S     Q    H.              W
C#|------7---10---8-----L-7--Ls-|--3-----------------|-------------------|
F#|--3--------------------------|--------------------|-------------------|
B |-----------------------------|--------------------|-------------------|
E |-----------------------------|--------------------|-------------------|
G#|-----------------------------|--------------------|-------------------|
C#|-----------------------------|--------------------|-------------------|

     E  Q    E   H           E.  E.   E.  Q     S S  S     Q    H.
C#|-----5----Ls--0--------|------7---10---8-----L-7--Ls-|--3-----------------|
F#|-----------------------|--3--------------------------|--------------------|
B |-----------------------|-----------------------------|--------------------|
E |-----------------------|-----------------------------|--------------------|
G#|-----------------------|-----------------------------|--------------------|
C#|-----------------------|-----------------------------|--------------------|

[Clean Solo]
     E   S  S  S S  S  Q     S  S  S  S  S     S  S  E   E   E   S  Q.     S
C#|--------------------------L-------------|---------------------------------|
F#|----------------------------12-13-12----|---------------------------------|
B |-----------12---12-14----------------12-|------------12--14---------------|
E |-----12-14------------------------------|--14-12-------------12-10--------|
G#|----------------------------------------|--------15-----------------------|
C#|----------------------------------------|---------------------------------|

     E   T  T  S  S  S  S  S  S  S  S  S  S  S  S  S
C#|--------------------------------------------------|
F#|-----------------12-13-12-------------------------|
B |-----------12-14----------14-12-------------------|
E |--------12----------------------15-14-12-------12-|
G#|-----14----------------------------------14-15----|
C#|--------------------------------------------------|
   
                                                                |--3--|
      Q.      Q     E    E   E      S   E.   E   S   Q.      S  S  S  S
C#|-----------------------------|----------------------------L----------|
F#|-------------------------15--|--15S-17-------------------------------|
B |----------14----14s--16--16--|--16S-17---16--16S-17-------L----------|
E |--14-------------------------|-----------17--17S-19---------------17-|
G#|-----------------------------|---------------------------------19----|
C#|-----------------------------|------------------------------20-------|

      E.   E.   Q     E   S   E.
C#|-------------------------------|
F#|-------------------------------|
B |-------------------------------|
E |--15---14----------------------|
G#|------------15-----------------|
C#|------------------15--15S-17---|

     E   S  S  S  S  S  S  S  S  S  S  T  T  T  T  S  S
C#|-----------------------------------------------------|
F#|-----------------------------------------------------|
B |--------------------------------17-19-20-19-17----17-|
E |-----------------------15-17-19----------------19----|
G#|-----------------15-17-------------------------------|
C#|-----13-13-15-17-------------------------------------|

       E   S  S  S  S   H         E      Q     E     Q      E     Q
C#|-------------------------------L\--|-------16br---Lb-----Lpbr-------|
F#|-----------------------------------|--------------------------------|
B |--/16------------------------------|--------------------------------|
E |-------17----------/14-------------|--------------------------------|
G#|----------17-14-12-----------------|--------------------------------|
C#|-----------------------------------|--------------------------------|

      S   S  S  S  S  S  S  S  S  S S  Q     S    E  S S S S S S S S S S S S S S
C#|--13p-12-10p-8-10-12---------------/7-----L-|---------------5---7-------------|
F#|---------------------13----10-10------------|-------6-5-8-6---8-----5---------|
B |------------------------12------------------|-----7---------------7---7-4-----|
E |--------------------------------------------|-----------------------------7-5-|
G#|--------------------------------------------|---------------------------------|
C#|--------------------------------------------|---------------------------------|

            |-3-|
      S S S S S S S S E.  S S S S S S    H.           E  E
C#|-----------------------------------|---------------------|
F#|-----------------------------------|---------------------|
B |---------------------------------0-|--2------------L--0--|
E |-------------------------------2---|---------------------|
G#|--/7-5---5-3-2-0-------3---3-5-----|---------------------|
C#|-------7---------3-5-----3---------|---------------------|
   
                                                  |--3--|
      H        E  S S S S S S    E  S E  S Q.     E  E  E
C#|-------------------------3-|--5-------------------------|
F#|-------------------1-3-5---|-----5-3----3---------------|
B |--/2--------L--0-2---------|----------5--------5--4-----|
E |---------------------------|-------------------------5--|
G#|---------------------------|----------------------------|
C#|---------------------------|----------------------------|

C#|------------------------|
F#|------------------------|
B |--2---------------------|
E |-----0S-2~--------------|
G#|------------------------|
C#|------------------------|

[Ending Solo]
Part 1
       E.   E     S Q    Q    S   S
C#|---7----Lbr---L---------------x-|
F#|----------------8---------8S-10-|
B |*--------------------9----------|
E |*-------------------------------|
G#|--------------------------------|
C#|--------------------------------|

      E.    E.   Q     Q     E      Q     E    Q     Q     E
C#|---L-------------------------|-----------------------------|
F#|-------/10---12--------------|------------/10----------12--|
B |-------------------12--------|--------12---------10--------|
E |-------------------------10--|--12-------------------------|
G#|-----------------------------|-----------------------------|
C#|-----------------------------|-----------------------------|

                                      [Part 2]
      E   Q      Q       E   E   E        Q.      H        E
C#|---L------------------------------||--------------------L--|
F#|-------Lbr----Lbr-----------------||--13------11-----------|
B |-------------------------14--16--*||-----------------------|
E |---------------------14----------*||-----------------------|
G#|----------------------------------||-----------------------|
C#|----------------------------------||-----------------------|

      E   E     E   H         E      E   E     E   H         E
C#|--------------------------13--|--------------------------18--|
F#|--13---Lbr---L--15------------|--16---Lbr---L----------------|
B |------------------------------|----------------15------------|
E |------------------------------|------------------------------|
G#|------------------------------|------------------------------|
C#|------------------------------|------------------------------|

Harmony
      S    S  S  S  E     H         T  T  T  T
C#|---Lbr-17-15--------------------------------|
F#|----------------18br---L--------------------|
B |-------------17-----------------------14-16-|
E |-----------------------------------14-------|
G#|--------------------------------17----------|
C#|--------------------------------------------|

      E.   S    S  S  H         T  T  T  T     E.   S    S  S  Q     Q     E
C#|----------------------------------------|----------------------------------|
F#|----------------------------------------|----------------------------------|
B |--17----Lbr--L-16-17--------------14-16-|--17----Lbr--L-16-17----16----14--|
E |-------------------------------14-------|----------------------------------|
G#|----------------------------17----------|----------------------------------|
C#|----------------------------------------|----------------------------------|

      E.   S   S  S  Q      Q     E      E   E   E   E   E   E   E   E
C#|----------------------------------|---L------------------------------|
F#|----------------------------------|------15--15----------------------|
B |-----------------------/17----17--|--------------14--14--16--16------|
E |--17----Lbr---15-17---------------|------------------------------17--|
G#|----------------------------------|----------------------------------|
C#|----------------------------------|----------------------------------|

      W                    S   E.   Q     Q     Q        W
C#|--------------------|-----------------------------|--------------------|
F#|--------------------|-----------------------------|--------------------|
B |--14----------------|--16-------------------16----|--------------------|
E |--------------------|-----/17---------15----------|--14----------------|
G#|--------------------|-----------17----------------|--------------------|
C#|--------------------|-----------------------------|--------------------|
   
      |--3--| |--3--| |--3--| |--3--|     |--3--|  |--3-|  |--3-|  |--3--|
      S  S  S S  S  S S  S  S S  S  S     S  S  S  S S  S  S S  S  S  S  S
C#|------------------------------------------------------------------------|
F#|-----------------------------------12g12-10-----------------------------|
B |--12-12-10-9---------------9-10-12----------12-10-9---------------------|
E |-------------12-10-9-10-12--------------------------12-10-9-------------|
G#|------------------------------------------------------------12----12-14-|
C#|---------------------------------------------------------------13-------|

      Q.      Q.      Q       E   Q     Q     Q     E
C#|------------------------|---------------------------|
F#|------------------------|---------------------------|
B |------------------------|-----------------------12--|
E |------------------------|-----------------14--------|
G#|--14--------------------|-----14----15--------------|
C#|----------12------15----|--L------------------------|

      H         E   E   E   E     E   Q     H         S  S
C#|-------------L--------------|---------------------------|
F#|----------------------------|--L------------------------|
B |--12------------12----------|---------------------------|
E |----------------------------|---------------------------|
G#|--------------------14--15--|-----14--------------------|
C#|----------------------------|-----------15--------13-12-|

      Q     E     Q     S  S  E.   S
C#|--15-----Lbr---L-------------------|
F#|--------------------13-12-13----L\-|
B |-----------------------------------|
E |-----------------------------------|
G#|-----------------------------------|
C#|-----------------------------------|

     E   S  S    S  S  S  S  S  S    S  S  S  S  S  S
C#|-----19--Lbr--L-17-15-17---------------15----12----|
F#|-------------------------17--Lbr--L-15----13----13-|
B |---------------------------------------------------|
E |---------------------------------------------------|
G#|---------------------------------------------------|
C#|---------------------------------------------------|

      S  S    S  S  S  S  Q     T  T  T  T  Q
C#|-----------------------------L----------20\----|
F#|--12--Lbr--L----12-------------------17--------|
B |-------------12----12-14----------17-----------|
E |-------------------------------19--------------|
G#|-----------------------------------------------|
C#|-----------------------------------------------|
   
      |--3--|  |--3--|  |--3--|  |--3--|  |--3--|  |--3--|  |--3--| |-3-|
      S  S  S  S  S  S  S  S  S  S  S  S  S  S  S  S  S  S  S  S  S S S S
C#|--19-17-15-------------------------------------------------------------|
F#|-----------18-17-15-17-18-17-15----------------------------------------|
B |--------------------------------17-16-14-------------------------------|
E |-----------------------------------------17-15-14----------------------|
G#|--------------------------------------------------17-15-14-------------|
C#|-----------------------------------------------------------17-15-------|

   [Sweeping]
      |--3--|  |--3--|   |---3--|  |--3--|   |---3--|  |--3--|  |--3--|  |--3--|
      S  S  S  S  S  S   S   S  S  S  S  S   S   S  S  S  S  S  S  S  S  S  S  S
C#|-----------------15h-22p-15----------15h-20p-15----------------------------15h-|
F#|--------------17------------17----17------------17----------------------17-----|
B |-----------17------------------17------------------17----------------17--------|
E |--------17--------------------------------------------17----------17-----------|
G#|-----19--------------------------------------------------19----19--------------|
C#|--20--------------------------------------------------------20-----------------|
   
      |---3--|  |--3--|  |--3--|  |--3--|  |---3---|  |--3--|  |--3--|  |--3--|
      S   S  S  S  S  S  S  S  S  S  S  S  S   S   S  S  S  S  S  S  S  S  S  S
C#|--19p-15-------------------------12-15-19h-20p-19-------------------------19-|
F#|---------17-------------------12------------------20-17----------------15----|
B |------------16-------------12---------------------------16----------16-------|
E |---------------17-14----14---------------------------------17----17----------|
G#|---------------------15---------------------------------------19-------------|
C#|-----------------------------------------------------------------------------|
   
      |---3--|  |--3--|  |---3--|  |--3--|  |--3-|  |--3-|  |---3--|  |--3--|
      S   S  S  S  S  S  S   S  S  S  S  S  S  S S  S S  S  S   S  S  S  S  S
C#|--17p-12----------12-17p-12------------------------8-12-17p-12----------12-|
F#|---------13----13-----------13------------------10-------------13----13----|
B |------------14-----------------14-------------9-------------------14-------|
E |----------------------------------14-------10------------------------------|
G#|-------------------------------------15-12---------------------------------|
C#|---------------------------------------------------------------------------|
   
      |----3----|  |--3--|  |--3--|  |----3---|   |--3--|  |--3--|  |--3--|  |--3--
      T  T   S  S  S  S  S  S  S  S  S  S  T  T   S  S  S  S  S  S  S  S  S  S  S
C#|--15-19p-15-------------------------12-15-19h-20-19-------------------------15-1-|
F#|------------17-------------------12-----------------20-17----------------17------|
B |---------------16-------------12--------------------------16----------16---------|
E |------------------17-14----14--------------------------------17----17------------|
G#|------------------------15--------------------------------------19---------------|
C#|---------------------------------------------------------------------------------|
   
      |---3--|  |--3--|  |---3--|  |--3--|  |-3-|  |--3--|  |---3--|  |--3--|
      S   S  S  S  S  S  S   S  S  S  S  S  E   S  S  S  S  S   S  S  S  S  S
C#|--20p-17----------17-20p-17--------------------------17-20p-17-------------|
F#|---------18----18-----------18--------------------18-----------18----------|
B |------------17-----------------17--------------17-----------------17-------|
E |----------------------------------19--------19-----------------------19----|
G#|-------------------------------------20-20------------------------------20-|
C#|---------------------------------------------------------------------------|
   
      |---3--|  |--3--|  |---3--|  |--3--|  |---3--|  |--3--|
      S   S  S  S  S  S  S   S  S  S  S  S  S   S  S  S  S  S  Q
C#|------------------19-22p-19----------19-22p-19-------------------|
F#|---------------20-----------20----20-----------20----------------|
B |------------19-----------------19-----------------19-------------|
E |---------21------------------------------------------21-17-------|
G#|--17h-22---------------------------------------------------17----|
C#|-----------------------------------------------------------------|
   
      |--3--|  |--3--|  |--3--|  |--3--|  |--3--|  |--3--|  |--3--|  |--3--|
      S  S  S  S  S  S  S  S  S  S  S  S  S  S  S  S  S  S  S  S  S  S  S  S
C#|--20-20-20-17-17-17-------------------------------------------------------|
F#|--------------------17-17-17----------------------------------------------|
B |-----------------------------17-17-17-14-14-14----------------------------|
E |-----------------------------------------------14-14-14-------------------|
G#|--------------------------------------------------------15-15-15-12-12-12-|
C#|--------------------------------------------------------------------------|
   
      |--3-|  |--3--|   |---3--|  |--3--|   |---3--|  |--3--|  |--3--|  |--3--|
      S S  S  S  S  S   S   S  S  S  S  S   S   S  S  S  S  S  S  S  S  S  S  S
C#|-------------10-13h-19p-13----------13h-19p-13----------------------------13-|
F#|----------12---------------15----15------------15----------------------15----|
B |-------12---------------------16------------------16----------------16-------|
E |-----9-----------------------------------------------17----------17----------|
G#|--10----------------------------------------------------14----14-------------|
C#|-----------------------------------------------------------15----------------|

Closing of Song
      S   S   S  S  S   S   S  S  S   S   S  S  S   S   S   S
C#|--19h-20p-19-----------------------------------------------|
F#|-------------20--------------------------------------------|
B |----------------19h-21p-19-17-16h-17p-16-------------------|
E |-----------------------------------------17----------------|
G#|--------------------------------------------17h-19p-17p-15-|
C#|-----------------------------------------------------------|

      S   S   S  S  S   S   S  S  S   S   S  S  S   S   S   S
C#|--19h-20p-19-----------------------------------------------|
F#|-------------20--------------------------------------------|
B |----------------19h-21p-19-17-16h-17p-16-------------------|
E |-----------------------------------------17----------------|
G#|--------------------------------------------17h-19p-17p-15-|
C#|-----------------------------------------------------------|

      S   S   S  S  S   S   S  S  S   S   S  S  S   S   S   S
C#|--19h-20p-19-----------------------------------------------|
F#|-------------20--------------------------------------------|
B |----------------19h-21p-19-17-16h-17p-16-------------------|
E |-----------------------------------------17----------------|
G#|--------------------------------------------17h-19p-17p-15-|
C#|-----------------------------------------------------------|

      S   S   S  S  S   S   S  S  S   S   S  S  S   S   S   S
C#|--19h-20p-19-----------------------------------------------|
F#|-------------20--------------------------------------------|
B |----------------19h-21p-19-17-16h-17p-16-------------------|
E |-----------------------------------------17----------------|
G#|--------------------------------------------17h-19p-17p-15-|
C#|-----------------------------------------------------------|

      S   S   S  S  S   S   S  S  S   S   S  S  S   S   S   S
C#|--19h-20p-19-----------------------------------------------|
F#|-------------20--------------------------------------------|
B |----------------19h-21p-19-17-16h-17p-16-------------------|
E |-----------------------------------------17----------------|
G#|--------------------------------------------17h-19p-17p-15-|
C#|-----------------------------------------------------------|

      S   S   S  S  S   S   S  S  S   S   S  S  S   S   S   S
C#|--19h-20p-19-----------------------------------------------|
F#|-------------20--------------------------------------------|
B |----------------19h-21p-19-17-16h-17p-16-------------------|
E |-----------------------------------------17----------------|
G#|--------------------------------------------17h-19p-17p-15-|
C#|-----------------------------------------------------------|

      S   S   S  S  S   S   S  S  S   S   S  S  S   S   S   S
C#|--19h-20p-19-----------------------------------------------|
F#|-------------20--------------------------------------------|
B |----------------19h-21p-19-17-16h-17p-16-------------------|
E |-----------------------------------------17----------------|
G#|--------------------------------------------17h-19p-17p-15-|
C#|-----------------------------------------------------------|

      S   S   S  S  S   S   S  S  S   S   S  S  S   S   S   S
C#|--19h-20p-19-----------------------------------------------|
F#|-------------20--------------------------------------------|
B |----------------19h-21p-19-17-16h-17p-16-------------------|
E |-----------------------------------------17----------------|
G#|--------------------------------------------17h-19p-17p-15-|
C#|-----------------------------------------------------------|

      S   S   S  S  S   S   S  S  S   S   S  S  S   S   S   S
C#|--19h-20p-19-----------------------------------------------|
F#|-------------20--------------------------------------------|
B |----------------19h-21p-19-17-16h-17p-16-------------------|
E |-----------------------------------------17----------------|
G#|--------------------------------------------17h-19p-17p-15-|
C#|-----------------------------------------------------------|

      S   S   S  S  S   S   S  S  S   S   S  S  S   S   S   S
C#|--19h-20p-19-----------------------------------------------|
F#|-------------20--------------------------------------------|
B |----------------19h-21p-19-17-16h-17p-16-------------------|
E |-----------------------------------------17----------------|
G#|--------------------------------------------17h-19p-17p-15-|
C#|-----------------------------------------------------------|

      S   S   S  S  S   S   S  S  S   S   S  S  S   S   S   S
C#|--19h-20p-19-----------------------------------------------|
F#|-------------20--------------------------------------------|
B |----------------19h-21p-19-17-16h-17p-16-------------------|
E |-----------------------------------------17----------------|
G#|--------------------------------------------17h-19p-17p-15-|
C#|-----------------------------------------------------------|

      S   S   S  S  S   S   S  S  S   S   S  S  S   S   S   S
C#|--19h-20p-19-----------------------------------------------|
F#|-------------20--------------------------------------------|
B |----------------19h-21p-19-17-16h-17p-16-------------------|
E |-----------------------------------------17----------------|
G#|--------------------------------------------17h-19p-17p-15-|
C#|-----------------------------------------------------------|

      S   S   S  S  S   S   S  S  S   S   S  S  S   S   S   S
C#|--19h-20p-19-----------------------------------------------|
F#|-------------20--------------------------------------------|
B |----------------19h-21p-19-17-16h-17p-16-------------------|
E |-----------------------------------------17----------------|
G#|--------------------------------------------17h-19p-17p-15-|
C#|-----------------------------------------------------------|

      S   S   S  S  S   S   S  S  S   S   S  S  S   S   S   S
C#|--19h-20p-19-----------------------------------------------|
F#|-------------20--------------------------------------------|
B |----------------19h-21p-19-17-16h-17p-16-------------------|
E |-----------------------------------------17----------------|
G#|--------------------------------------------17h-19p-17p-15-|
C#|-----------------------------------------------------------|

      S   S   S  S  S   S   S  S  S   S   S  S  S   S   S   S
C#|--19h-20p-19-----------------------------------------------|
F#|-------------20--------------------------------------------|
B |----------------19h-21p-19-17-16h-17p-16-------------------|
E |-----------------------------------------17----------------|
G#|--------------------------------------------17h-19p-17p-15-|
C#|-----------------------------------------------------------|

      S   S   S  S  S   S   S  S  S   S   S  S  S   S   S   S
C#|--19h-20p-19-----------------------------------------------||
F#|-------------20--------------------------------------------||
B |----------------19h-21p-19-17-16h-17p-16-------------------||
E |-----------------------------------------17----------------||
G#|--------------------------------------------17h-19p-17p-15-||
C#|-----------------------------------------------------------||

Guitar II Dusty Rhythm
[Intro]
        W                H.
C#|----------------------------------||
F#|----------------------------------||
B |*--------------------------------*||
E |*--------------------------------*||
G#|----------------------------------||
C#|----------------------------------||

      E  E  E  E   E   E  E  E  E  E  E   E   E  E   3x  E  E  E  E  E  E  E  E
C#|--------------------------------------------------||--------------------------|
F#|--------------------------------------------------||--------------------------|
B |*------------------------------------------------*||--7--------------0--------|
E |*--------9-----10---------------9-----10---------*||-----7--------4-----------|
G#|---0--7-----0------10--7--0--7-----0------10--7---||--------9--5--------3-----|
C#|--------------------------------------------------||-----------------------1--|

     E  E  E  Q    E  E  E     E  E  E  E  E  E  E  E  E  E  E  E  E
C#|-------------------------|-----------------------------------------|
F#|----------------------3--|-----------------------------------------|
B |-----------5----4--------|--9-----7-----5--------9-----7-----5-----|
E |-----2--5----------2-----|-----7-----7-----7--5-----7-----7-----7--|
G#|-------------------------|-----------------------------------------|
C#|--L----------------------|-----------------------------------------|

     E  E  E  E  E  E  E  E  E  E  E  E  E  E
C#|--------------------------------------------|
F#|--------------------------------------------|
B |--9-----7-----5--------9-----------5--------|
E |-----7-----7-----7--5-----7--5--7-----7--5--|
G#|--------------------------------------------|
C#|--------------------------------------------|

      E  E  E  E  E  E   E  E  E  E  E  E  E   E
C#|------------------------------------------------||
F#|------------------------------------------------||
B |*--------7-----9--7------------7-----9--7------*||
E |*--------------------10--------------------10--*||
G#|---0--7-----7------------0--7-----7-------------||
C#|------------------------------------------------||

     E  E  E  E   E  E  E  E  E  E  E   E  E  E
C#|----------------------------------------------|
F#|--------8-----10--8-----------8-----10--8-----|
B |-----9---------------9-----9---------------9--|
E |----------------------------------------------|
G#|--0--------0------------0--------0------------|
C#|----------------------------------------------|

      E   E   E   E   E   E   E   E     E  E   E  Q    E  E  E
C#|--10------------------------------|------------8-------------|
F#|------10------------------13------|--------10----------------|
B |----------11------11--12------10--|--L--9-----------7--9-----|
E |--------------12------------------|-----------------------7--|
G#|----------------------------------|--------------------------|
C#|----------------------------------|--------------------------|

     E  E  E  E  E  E  E  E  E  E  E  E  E
C#|--7-----5-----3--------7-----5-----3-----|
F#|-----5-----5-----5--3-----5-----5-----5--|
B |-----------------------------------------|
E |-----------------------------------------|
G#|-----------------------------------------|
C#|-----------------------------------------|

     E  E  E  E  E  E  E  E  E  E  E  E  E  E  E
C#|--7-----5-----3--------7-----------5-----3-----|
F#|-----5-----5-----5--3-----5-----5-----5-----5--|
B |-----------------------------7-----------------|
E |-----------------------------------------------|
G#|-----------------------------------------------|
C#|-----------------------------------------------|

     E  E  E  E  E  E  E  E  E  E  E  E  E
C#|--7-----5-----3--------7-----5-----3-----|
F#|-----5-----5-----5--3-----5-----5-----5--|
B |-----------------------------------------|
E |-----------------------------------------|
G#|-----------------------------------------|
C#|-----------------------------------------|

     E  E  E  E  E  E  E  E  E  E  E  E  E
C#|--7-----5-----3--------7--------------7--|
F#|-----5-----5-----5--3-----5-----5--8-----|
B |-----------------------------7-----------|
E |-----------------------------------------|
G#|-----------------------------------------|
C#|-----------------------------------------|

     E  E  E  E  E  E  E  E  E  E  E  E  E
C#|--6-----5-----3--------6-----5-----3-----|
F#|-----4-----4-----4--3-----4-----4-----4--|
B |-----------------------------------------|
E |-----------------------------------------|
G#|-----------------------------------------|
C#|-----------------------------------------|

     E  E  E  E  E  E  E  E  E  E  E  E  E
C#|--6-----5-----3--------6-----5-----3-----|
F#|-----4-----4-----4--3-----4-----4-----4--|
B |-----------------------------------------|
E |-----------------------------------------|
G#|-----------------------------------------|
C#|-----------------------------------------|

     E  E  E  E  E  E  E  E  E  E  E  E  E
C#|--7-----5-----3--------7-----5-----3-----|
F#|-----5-----5-----5--3-----5-----5-----5--|
B |-----------------------------------------|
E |-----------------------------------------|
G#|-----------------------------------------|
C#|-----------------------------------------|

     E  E  E  E  E  E  E  E  E  E  E  E  E  E  E
C#|--7-----5-----3--------7-----------5-----3-----|
F#|-----5-----5-----5--3-----5-----5-----5-----5--|
B |-----------------------------7-----------------|
E |-----------------------------------------------|
G#|-----------------------------------------------|
C#|-----------------------------------------------|

     E  E  E  E  E  E  E  Q    E  E  E  E  E
C#|-------------------------------------------|
F#|--3----------------------------------------|
B |-----4-----2-------------------------------|
E |--------5-----4--0--2----------------------|
G#|-----------------------3-------------2--3--|
C#|----------------------------2--3--4--------|

     E  E  E  E  E  E  E  E  E  E  E  E  E  E
C#|--------------------------------------------|
F#|--------------------------------------------|
B |--------------------------------------------|
E |--------------------------------------------|
G#|--4-----2-----0--------4-----2-----0--------|
C#|-----2-----2-----2--0-----------------2--0--|

     E  E  E  E  E  E  E  E  E  E  E  E  E  E
C#|--------------------------------------------|
F#|--------------------------------------------|
B |--------------------------------------------|
E |--------------------------------------------|
G#|--4-----2-----0--------4-----------2--3--4--|
C#|-----2-----2-----2--0-----2--3--4-----------|

     E  E  E  E  E  E  E  E  E  E  E  E  E  E
C#|--------------------------------------------|
F#|--------------------------------------------|
B |--------------------------------------------|
E |--------------------------------------------|
G#|--5-----3-----1--------5-----3-----1--------|
C#|-----3-----3-----3--1-----------------3--1--|

     E  E  E  E  E  E  E  E  E  E  E  E  E  E     E  E  E  E  E  E  E  E
C#|--------------------------------------------|--------------------------|
F#|--------------------------------------------|--------------------------|
B |--------------------------------------------|--------------2-----------|
E |--------------------------------------------|--1-----4--1-----4--1--0--|
G#|--5-----3-----1--------5-----------3--4--5--|-----3--------------------|
C#|-----3-----3-----3--1-----3--4--5-----------|--------------------------|

     E  E  E  E  E  E  E  E  E  E  E  E  E  E
C#|--------------------------------------------|
F#|--------------------------------------------|
B |--------------------------------------------|
E |--------------------------------------------|
G#|--4-----2-----0--------4-----2-----0--------|
C#|-----2-----2-----2--0-----------------2--0--|

     E  E  E  E  E  E  E  E  E  E  E  E  E  E
C#|--------------------------------------------|
F#|--------------------------------------------|
B |--------------------------------------------|
E |--------------------------------------------|
G#|--4-----2-----0--------4-----------2--3--4--|
C#|-----2-----2-----2--0-----2--3--4-----------|

     E  E  E  E  E  E  E  E  E  E  E  E  E  E
C#|--------------------------------------------|
F#|--------------------------------------------|
B |--------------------------------------------|
E |--------------------------------------------|
G#|--5-----3-----1--------5-----3-----1--------|
C#|-----3-----3-----3--1-----------------3--1--|

     E  E  E  E  E  E  E  E  E  E  E  E  E  E
C#|--------------------------------------------|
F#|--------------------------------------------|
B |--------------------------------------------|
E |--------------------------------------------|
G#|--5-----3-----1--------5-----------3--4--5--|
C#|-----3-----3-----3--1-----3--4--5-----------|

     E  E  E  E  E  E  E  E  E  E  E  E  E  E
C#|-----------------------------------2--------|
F#|-----------------------1-----4--1-----4--1--|
B |--------------2-----------2-----------------|
E |--1-----4--1-----4--1-----------------------|
G#|-----3--------------------------------------|
C#|--------------------------------------------|

     E  E  E  E  E  E  E  E  E  E  E  E  E  E     W
C#|--------------------------------------------|-------------------|
F#|--4--1--------1-----------------------------|-------------------|
B |--------2--------2-----------------2--------|--9----------------|
E |-----------4--------1--------4--1-----4--1--|--9----------------|
G#|-----------------------3--0-----------------|--7----------------|
C#|--------------------------------------------|-------------------|

     W                   Q.     Q.     Q       E  Q.     E  E  E  E
C#|-------------------|---------------------|--L---------------------|
F#|-------------------|---------------------|--L---------------------|
B |--L----------------|--9------9------9----|-----9------------------|
E |--L----------------|--8------5------6----|--L--9------5-----2-----|
G#|--L----------------|--7------7------7----|-----7---------2-----2--|
C#|-------------------|---------------------|------------------------|

[Verse]
Part 1
              ^
     H        H           H        E  E  E  E     H.           E  E
C#|--------------------|--L--------------------|---------------------|
F#|--------------------|--L--------------------|---------------------|
B |-----------9--------|-----------------------|---------------------|
E |-----------9--------|--L--------------------|---------------------|
G#|-----------7--------|-----------3--2-----4--|--L------------4--4--|
C#|--0-----------------|-----------------3--2--|--L------------2--2--|

                                          ^
     S S E  E  E  E  E  E  E     H        H           H        E  E  E  E
C#|---------------------------|--------------------|--L--------------------|
F#|---------------------------|--------------------|--L--------------------|
B |---------------------------|-----------9--------|-----------------------|
E |---------------5-----2-----|-----------9--------|--L--------------------|
G#|--4-4-4--4--4-----2-----2--|-----------7--------|-----------3--2-----4--|
C#|--2-2-2--2--2--------------|--0-----------------|-----------------3--2--|

     H.           E  E     S S E  E  E  E  E  E  E     Q    Q.     Q.
C#|---------------------|---------------------------|---------------------|
F#|---------------------|---------------------------|---------------------|
B |---------------------|---------------------------|---------------------|
E |---------------------|---------------5-----2-----|---------------------|
G#|--L------------4--4--|--4-4-4--4--4-----2-----2--|-------1-------------|
C#|--L------------2--2--|--2-2-2--2--2--------------|--0-----------3------|

     Q    Q    E  E  E  E     H.           E  E     S S E  E  E  E  E  E  E
C#|------------------------|---------------------|---------------------------|
F#|------------------------|---------------------|---------------------------|
B |------------------------|---------------------|---------------------------|
E |------------------------|---------------------|---------------5-----2-----|
G#|------------3--2-----4--|--L------------4--4--|--4-4-4--4--4-----2-----2--|
C#|--4----0----------3--2--|--L------------2--2--|--2-2-2--2--2--------------|

              ^
     H        H           H        E  E  E  E     E  E  E  E  Q.     E
C#|--------------------|--L--------------------|------------------------|
F#|--------------------|--L--------------------|------------------------|
B |-----------9--------|-----------------------|------------------------|
E |-----------9--------|--L--------------------|------------------------|
G#|-----------7--------|-----------3--2-----4--|-----4-----4---------4--|
C#|--0-----------------|-----------------3--2--|-----2-----2---------2--|

     E  E  Q.     Q.        H.           E  E     Q    H.
C#|----------------------|---------------------|--------------------|
F#|----------------------|---------------------|--------------------|
B |---------------4------|---------------------|--------------------|
E |----------------------|---------------------|--------------------|
G#|-----4----------------|--2------------L--2--|--2-----------------|
C#|-----2---------3------|--0------------L--0--|--0-----------------|

Part 2
      E  Q    Q    Q    E     E  Q    Q    Q    E     E  Q    E  E  Q    E
C#|------------------------|-----------------------|------------------------|
F#|------------------------|-----------------------|------------------------|
B |*-----------------------|-----------------------|------------------------|
E |*-----------------------|-----------------------|--6--5----5-------------|
G#|---4--2----4----5----5--|--4--2----4----5----5--|--4--3----3--7--6----6--|
C#|---2--0----2----3----3--|--2--0----2----3----3--|-------------5--4----4--|

     E  Q    E  E  E  E  E       H           E  Q    Q    Q    E
C#|--------------------------||-----------|-----------------------|
F#|--------------------------||-----------|-----------------------|
B |-------------------------*||-----------|-----------------------|
E |--4--5----5--------------*||-----------|-----------------------|
G#|--2--3----3--4--4--4--4---||--3--------|--4--2----4----5----5--|
C#|-------------2--2--2--2---||--1--------|--2--0----2----3----3--|
   
                                                                 |----3----|
     E  Q    Q    Q    E     E  Q    E  E  Q    E     E  Q    E  Q    Q    Q
C#|-----------------------|------------------------|----------------------------|
F#|-----------------------|------------------------|----------------------------|
B |-----------------------|------------------------|----------------------------|
E |-----------------------|--6--5----5-------------|--4--5----5-----------------|
G#|--4--2----4----5----5--|--4--3----3--7--6----6--|--2--3----3--4----4----4----|
C#|--2--0----2----3----3--|-------------5--4----4--|-------------2----2----2----|

     E  Q    Q    Q    E     E  Q    Q    Q    E     E  Q    E  E  Q    E
C#|-----------------------|-----------------------|------------------------|
F#|-----------------------|-----------------------|------------------------|
B |-----------------------|-----------------------|------------------------|
E |-----------------------|-----------------------|--6--5----5-------------|
G#|--4--2----4----5----5--|--4--2----4----5----5--|--4--3----3--7--6----6--|
C#|--2--0----2----3----3--|--2--0----2----3----3--|-------------5--4----4--|

                                  PM   PM   PM   PM   PM   PM      PM   PM   PM
                |----3----|       |----3----|    |----3----|       |----3----|
     E  Q    E  Q    Q    Q       Q    Q    Q    Q    Q    Q       Q    Q    Q
C#|----------------------------|--------------------------------|-----------------|
F#|----------------------------|--------------------------------|-----------------|
B |----------------------------|--------------------------------|-----------------|
E |--4--5----5-----------------|--------------------------------|-----------------|
G#|--2--3----3--4----4----4----|--4----4----4----4----4----4----|--4----4----4----|
C#|-------------2----2----2----|--2----2----2----2----2----2----|--2----2----2----|

Part 3
                                   PM PM PM PM PM PM       PM PM PM PM PM
     S E  S S E  S    E  Q.        S  S  S  S  S  S  S S S S  S  S  S  S  S S
C#|----------------|------------|---------------------------------------------|
F#|----------------|------------|---------------------------------------------|
B |----------------|------------|---------------------------------------------|
E |----------------|------------|---------------------------------------------|
G#|---------x-5--5-|--4---------|--------------------2-5-4-4--------------3-2-|
C#|--1-0--4-x------|------------|--1--1--0--0--4--4-----------3--3--2--2------|

     PM PM PM PM PM PM PM PM             PM
     S  S  S  S  S  S  S  S  S S S S E   E
C#|-----------------------------------------|
F#|-----------------------------------------|
B |-----2--1--------------------------------|
E |-----------3--2--3--2--0----0------------|
G#|--2-----------------------4---4-3-4\-----|
C#|--------------------------------------1--|

     PM PM PM PM PM PM       PM PM PM PM PM
     S  S  S  S  S  S  S S S S  S  S  S  S  S S
C#|---------------------------------------------|
F#|---------------------------------------------|
B |---------------------------------------------|
E |---------------------------------------------|
G#|--------------------2-5-4-4--------------3-2-|
C#|--1--1--0--0--4--4-----------3--3--2--2------|

     PM PM PM PM PM PM PM
     S  S  S  S  S  S  S  S S S S S E  S S
C#|----------------------------------------|
F#|--------------------------------------0-|
B |-----2--1-----1---------------------1---|
E |-----------3-----3--2--3----------------|
G#|--2----------------------4-3-5-4--------|
C#|---------------------------------1------|

     PM PM PM PM PM PM       PM PM PM PM PM
     S  S  S  S  S  S  S S S S  S  S  S  S  S S
C#|---------------------------------------------|
F#|---------------------------------------------|
B |---------------------------------------------|
E |---------------------------------------------|
G#|--------------------2-5-4-4--------------3-2-|
C#|--1--1--0--0--4--4-----------3--3--2--2------|

     PM PM
     S  S  S S S S S S S S S S S S S S
C#|------------------------------------|
F#|------------------------------------|
B |------------1-----------------------|
E |-----6--4-3---3-1-----1-------------|
G#|--2---------------4-3---3-0-3-2-0-2-|
C#|------------------------------------|

     PM PM PM PM PM PM       PM PM PM PM PM
     S  S  S  S  S  S  S S S S  S  S  S  S  S S
C#|---------------------------------------------|
F#|---------------------------------------------|
B |---------------------------------------------|
E |---------------------------------------------|
G#|--------------------2-5-4-4--------------3-2-|
C#|--1--1--0--0--4--4-----------3--3--2--2------|

     PM PM PM PM PM PM PM                                        ^
     S  S  S  S  S  S  S  S S S S S E  S S    S E  E  E  S E  E  Q
C#|----------------------------------------|--------------------------|
F#|--------------------------------------0-|--------------------------|
B |-----2--1-----1---------------------1---|-------------2------------|
E |-----------3-----3--2--3----------------|-------1-----0-6-----5----|
G#|--2----------------------4-3-5-4--------|-------0--4----4-----4----|
C#|---------------------------------1------|--1-0-----4----------1----|

PArt 4
     S S S S E  S S S S S S S S E     S S S S E  S S S S S S S S E
C#|--------------------------------|--------------------------------|
F#|--------------------------------|--------------------------------|
B |--------------------------------|--------------------------------|
E |--------------------------------|--------------------------------|
G#|------5-6--------5-6-----3-5----|------5-6--------5-6-----3-5----|
C#|--3-4--------3-4-----3-4--------|--3-4--------3-4-----3-4--------|

     S S S S E  S S S S S S S S E     S S S S E  S S S S S S S S E
C#|--------------------------------|--------------------------------|
F#|--------------------------------|--------------------------------|
B |--------------------------------|--------------------------------|
E |--------------------------------|--------------------------------|
G#|------5-6--------5-6-----3-5----|------5-6--------5-6-----3-5----|
C#|--3-4--------3-4-----3-4--------|--3-4--------3-4-----3-4--------|

     S S S S E  S S S S S S S S E     S S S S E  S S S S S S S S E
C#|--------------------------------|--------------------------------|
F#|--------------------------------|--------------------------------|
B |--------------------------------|--------------------------------|
E |--------------------------------|--------------------------------|
G#|------5-6--------5-6-----3-5----|------5-6--------5-6-----3-5----|
C#|--3-4--------3-4-----3-4--------|--3-4--------3-4-----3-4--------|

                                      PM PM PM PM PM PM PM PM
     S S S S E  S S S S S S S S E     S  E  S  E  S  E  S  E  S S S S
C#|--------------------------------|----------------------------------|
F#|--------------------------------|--------------------------------0-|
B |--------------------------------|------------------------------1---|
E |--------------------------------|--------------------------0-3-----|
G#|------5-6--------5-6-----3-5----|-----2-----2-----2-----2----------|
C#|--3-4--------3-4-----3-4--------|--0--0--0--0--0--0--0--0----------|

Part 5
     PM PM PM PM    PM PM PM PM PM PM PM PM
     S  S  S  S  E  S  S  S  S  S  S  S  S  E
C#|--------------------------------------------|
F#|--------------------------------------------|
B |--------------------------------------------|
E |--------------------------------------------|
G#|-----------------------------2--5-----------|
C#|--4--1--4--1-----4--1--4--1--------4--1-----|

     PM PM PM PM    PM PM PM PM PM PM PM PM PM PM
     S  S  S  S  E  S  S  S  S  S  S  S  S  S  S
C#|-----------------------------------------------|
F#|-----------------------------------------------|
B |--------------------------------------------1--|
E |-----------------------------------1--4--------|
G#|-----------------------2-----5--2--------2-----|
C#|--4--1--4--1-----4--1-----4--------------------|

     S S S S E.  E  S S S S E.  Q    S E.  Q
C#|---------------------------------------------|
F#|---------------------------------------------|
B |---------------------1-3---------------------|
E |--0-------1---1--1-3-----1---1---------------|
G#|----2-----0---0----------0---0----x-2---2----|
C#|------4-1-------------------------x-0---0----|

     PM PM PM PM    PM PM PM PM PM PM PM PM
     S  S  S  S  E  S  S  S  S  S  S  S  S  E
C#|--------------------------------------------|
F#|--------------------------------------------|
B |--------------------------------------------|
E |--------------------------------------------|
G#|-----------------------------2--5-----------|
C#|--4--1--4--1-----4--1--4--1--------4--1-----|

     PM PM PM PM    PM PM PM PM PM PM PM PM
     S  S  S  S  E  S  S  S  S  S  S  S  S  S S
C#|---------------------------------------------|
F#|---------------------------------------------|
B |---------------------------------------------|
E |---------------------------------------------|
G#|-----------------------------2--5--------2-5-|
C#|--4--1--4--1-----4--1--4--1--------4--1------|

Part 6
     S S S S  E.  E  S S S S  E.  Q    S     S S E  E  E  E  E  S S S S
C#|---------------------------------------|-----------------------------|
F#|------------------------0--------------|-----------------------------|
B |----------------------1----------------|-----------------------------|
E |--0-3-0---/1---1--0-3-----\1---1----L\-|---------4-----0-----------0-|
G#|--------0-/0---0----------\0---0----L\-|------------4-----1------4---|
C#|---------------------------------------|--0-1-2--------------2-3-----|

     S S E  E  E  E  E  S S S S    S S E  E  E  E  E  S S S S
C#|-----------------------------|-----------------------------|
F#|-----------------------------|-----------------------------|
B |-----------------------------|-----------------------------|
E |---------4-----0-----------0-|---------4-----0-----------0-|
G#|------------4-----1------4---|------------4-----1------4---|
C#|--0-1-2--------------2-3-----|--0-1-2--------------2-3-----|

     S S E  E  E  E  E  S S S S    S S E  E  E  E  E  S S S S
C#|-----------------------------|-----------------------------|
F#|-----------------------------|-----------------------------|
B |-----------------------------|-----------------------------|
E |---------4-----0-----------0-|---------4-----0-----------0-|
G#|------------4-----1------4---|------------4-----1------4---|
C#|--0-1-2--------------2-3-----|--0-1-2--------------2-3-----|

     S S E  E  E  E  E  S S S S    S S E  E  E  E  E  S S S S
C#|-----------------------------|-----------------------------|
F#|-----------------------------|-----------------------------|
B |-----------------------------|-----------------------------|
E |---------4-----0-----------0-|---------4-----0-----------0-|
G#|------------4-----1------4---|------------4-----1------4---|
C#|--0-1-2--------------2-3-----|--0-1-2--------------2-3-----|

     S S E  E  E  E  E  S S S S    E.  Q.     E.  Q.     E.  Q    E.
C#|-----------------------------|-------------------------------------|
F#|-----------------------------|-------------------------------------|
B |-----------------------------|-------------------------------------|
E |---------4-----0-----------0-|--1---1------------------------------|
G#|------------4-----1------4---|--1---1------2---2------2---2--------|
C#|--0-1-2--------------2-3-----|-------------6---6------0---0--------|

Part 7
     PM  PM            PM  PM            PM  PM            PM  PM  PM  PM
     E.  E.  Q.        E.  E.  Q.        E.  E.  Q.        E.  E.  E.  E.
C#|-----------------|-----------------|-----------------|------------------|
F#|-----------------|-----------------|-----------------|------------------|
B |-----------------|-----------------|-----------------|------------------|
E |-----------------|-----------------|-----------------|------------------|
G#|--2---2----------|--2---2----------|--2---2----------|--2---2---2---2---|
C#|--0---0----------|--0---0----------|--0---0----------|--0---0---0---0---|

     PM  PM            PM  PM            PM  PM            PM  PM  PM  PM
     E.  E.  Q.        E.  E.  Q.        E.  E.  Q.        E.  E.  E.  E.
C#|-----------------|-----------------|-----------------|------------------|
F#|-----------------|-----------------|-----------------|------------------|
B |-----------------|-----------------|-----------------|------------------|
E |-----------------|-----------------|-----------------|------------------|
G#|--2---2----------|--2---2----------|--2---2----------|--2---2---2---2---|
C#|--0---0----------|--0---0----------|--0---0----------|--0---0---0---0---|

     PM  PM            PM  PM            PM  PM            PM  PM  PM  PM
     E.  E.  Q.        E.  E.  Q.        E.  E.  Q.        E.  E.  E.  E.
C#|-----------------|-----------------|-----------------|------------------|
F#|-----------------|-----------------|-----------------|------------------|
B |-----------------|-----------------|-----------------|------------------|
E |-----------------|-----------------|-----------------|------------------|
G#|--5---5----------|--5---5----------|--5---5----------|--5---5---5---5---|
C#|--4---4----------|--4---4----------|--4---4----------|--4---4---4---4---|

      S  S  S  S  S  S  S  S  S  S  S  S     S  S  S  S  S  S  S  S  S  S  S  S
C#|--------------------------------------|--------------------------------------|
F#|--------------------------------------|--------------------------------------|
B |--------------------------------------|--------------------------------------|
E |--18-18-12-12-18-18-12-12-18-18-12-12-|--18-18-12-12-18-18-12-12-18-18-12-12-|
G#|--------------------------------------|--------------------------------------|
C#|--------------------------------------|--------------------------------------|

      S  S  S  S  S  S  S  S  S  S  S  S     S  S  S  S  S  S  S  S
C#|--------------------------------------|--------------------------|
F#|--------------------------------------|--------------------------|
B |--------------------------------------|--14-13----13-------------|
E |--18-18-12-12-18-18-12-12-18-18-12-12-|--------15----15-14-15-14-|
G#|--------------------------------------|--------------------------|
C#|--------------------------------------|--------------------------|

      S  S S  S S  T  T S  S    S  S  S    E  E  E     H        Q    E
C#|--------------------------|----------|-----------|-------------------|
F#|--------------------------|----------|-----------|-------------------|
B |--------------------------|----------|-----------|-------------------|
E |--12-10-9-10-9-------9-10-|--9-------|-----------|-------------------|
G#|---------------11-12------|----12-11-|--8--------|-------------------|
C#|--------------------------|----------|-----8--7--|-------------------|

[Bridge]
     H        Q    E
C#|-------------------|
F#|-------------------|
B |-------------------|
E |-------------------|
G#|-------------------|
C#|-------------------|

     PM PM    PM            PM PM    PM
     E  E  E  E   E   E  E  E  E  E  E   E   E  E
C#|------------------------------------------------|
F#|------------------------------------------------|
B |------------------------------------------------|
E |--------9-----10---------------9-----10---------|
G#|--0--7-----7------10--7--0--7-----7------10--7--|
C#|-----------5----------------------5-------------|

     PM PM    PM            PM PM    PM
     E  E  E  E   E   E  E  E  E  E  E   E   E  E
C#|------------------------------------------------|
F#|------------------------------------------------|
B |------------------------------------------------|
E |--------9-----10---------------9-----10---------|
G#|--0--7-----7------10--7--0--7-----7------10--7--|
C#|-----------5----------------------5-------------|

     PM PM    PM            PM PM    PM
     E  E  E  E   E   E  E  E  E  E  E   E   E  E     E  E  E  E  E  E  E  E
C#|------------------------------------------------|--------------------------|
F#|------------------------------------------------|--------------------------|
B |------------------------------------------------|--7--------------0--------|
E |--------9-----10---------------9-----10---------|-----7--------4-----------|
G#|--0--7-----7------10--7--0--7-----7------10--7--|--------9--5--------3-----|
C#|-----------5----------------------5-------------|-----------------------1--|

     E  E  E  Q    E  E  E     E  E  E  E  E  E  E  E
C#|-------------------------|--------------------------|
F#|----------------------3--|--5-----------------------|
B |-----------5----4--------|--------------5-----------|
E |--------5----------3-----|-----7--5--7-----7-----9--|
G#|-----7-------------------|--------------------7--7--|
C#|--L----------------------|-----------------------5--|

Piano plays
     W
C#|-------------------|
F#|-------------------|
B |-------------------|
E |--L----------------|
G#|--L----------------|
C#|--L----------------|

     W                   W                   W                   W
C#|-------------------|-------------------|-------------------|-------------------|
F#|--L----------------|--L----------------|--L----------------|-------------------|
B |-------------------|-------------------|-------------------|-------------------|
E |-------------------|-------------------|-------------------|-------------------|
G#|--L----------------|--L----------------|--L----------------|-------------------|
C#|--L----------------|--L----------------|--L----------------|-------------------|

     W                   W                   W
C#|-------------------|-------------------|-------------------|
F#|-------------------|-------------------|-------------------|
B |-------------------|-------------------|-------------------|
E |-------------------|-------------------|-------------------|
G#|-------------------|-------------------|-------------------|
C#|-------------------|-------------------|-------------------|

[Verse 2/Clean Solo]
      W                   W                   W
C#|--------------------|-------------------|-------------------|
F#|--------------------|-------------------|-------------------|
B |*-------------------|-------------------|-------------------|
E |*-------------------|-------------------|-------------------|
G#|--------------------|-------------------|-------------------|
C#|--------------------|-------------------|-------------------|

     W                     W                   W
C#|--------------------||-------------------|-------------------|
F#|--------------------||-------------------|-------------------|
B |-------------------*||-------------------|-------------------|
E |-------------------*||-------------------|-------------------|
G#|--------------------||-------------------|-------------------|
C#|--------------------||-------------------|-------------------|

     W                   W                   W                   W
C#|-------------------|-------------------|-------------------|-------------------|
F#|-------------------|-------------------|-------------------|-------------------|
B |-------------------|-------------------|-------------------|-------------------|
E |-------------------|-------------------|-------------------|-------------------|
G#|-------------------|-------------------|-------------------|-------------------|
C#|-------------------|-------------------|-------------------|-------------------|

     W                   W                   W                   W
C#|-------------------|-------------------|-------------------|-------------------|
F#|-------------------|-------------------|-------------------|-------------------|
B |-------------------|-------------------|-------------------|-------------------|
E |-------------------|-------------------|-------------------|-------------------|
G#|-------------------|-------------------|-------------------|-------------------|
C#|-------------------|-------------------|-------------------|-------------------|

     W                   W                   W                   W
C#|-------------------|-------------------|-------------------|-------------------|
F#|-------------------|-------------------|-------------------|-------------------|
B |-------------------|-------------------|-------------------|-------------------|
E |-------------------|-------------------|-------------------|-------------------|
G#|-------------------|-------------------|-------------------|-------------------|
C#|-------------------|-------------------|-------------------|-------------------|

     W                   W                   W                   W
C#|-------------------|-------------------|-------------------|-------------------|
F#|-------------------|-------------------|-------------------|-------------------|
B |-------------------|-------------------|-------------------|-------------------|
E |-------------------|-------------------|-------------------|-------------------|
G#|-------------------|-------------------|-------------------|-------------------|
C#|-------------------|-------------------|-------------------|-------------------|

     W                   W                   W                   W
C#|-------------------|-------------------|-------------------|-------------------|
F#|-------------------|-------------------|-------------------|-------------------|
B |-------------------|-------------------|-------------------|-------------------|
E |-------------------|-------------------|-------------------|-------------------|
G#|-------------------|-------------------|-------------------|-------------------|
C#|-------------------|-------------------|-------------------|-------------------|

     W                   W
C#|-------------------|-------------------|
F#|-------------------|-------------------|
B |-------------------|-------------------|
E |-------------------|-------------------|
G#|-------------------|-------------------|
C#|-------------------|-------------------|

[Ending Solo]
      E.  S S S E.  E.  E  E     E.  S S S E.  E.  E  E     E.  S S S E.  E.  E  E
C#|---------------------------|--------------------------|--------------------------|
F#|---------------------------|--------------------------|--------------------------|
B |*--4---4-----4---4---4--4--|--5---5-x-x-5---5---5--5--|--------------------------|
E |*--2---2-x-x-2---2---2--2--|--3---3-x-x-3---3---3--3--|--5---5-x-x-5---5---5--5--|
G#|---0---0-x-x-0---0---0--0--|--3---3-x-x-3---3---3--3--|--5---5-x-x-5---5---5--5--|
C#|---------x-x---------------|--1---1-x-x-1---1---1--1--|--3---3-x-x-3---3---3--3--|

     E.  S S S E.  E.  E  E       E.  S S S E.  E.  E  E
C#|---------------------------||--------------------------|
F#|---------------------------||--------------------------|
B |--5---5-----4---4---4--4--*||--8---8-x-x-8---8---8--8--|
E |--2---2-x-x-2---2---2--2--*||--8---8-x-x-8---8---8--8--|
G#|--0---0-x-x-0---0---0--0---||--6---6-x-x-6---6---6--6--|
C#|--------x-x----------------||--4---4-x-x-4---4---4--4--|

     E.  S S S E.  E.  E  E     E.  S S S E.  E.  E  E
C#|--1---1-----1---1---1--1--|--4---4-----4---4---4--4--|
F#|--1---1-----1---1---1--1--|--4---4-x-x-4---4---4--4--|
B |--3---3-x-x-3---3---3--3--|--5---5-x-x-5---5---5--5--|
E |--3---3-x-x-3---3---3--3--|--6---6-x-x-6---6---6--6--|
G#|--1---1-x-x-1---1---1--1--|--6---6-x-x-6---6---6--6--|
C#|--------x-x---------------|--4---4-x-x-4---4---4--4--|

     E.  S S S E.  E.  E  E     E.  S  S  S E.  E.  E  E
C#|--------------------------|--3---3-------3---3---3--3--|
F#|--1---1-----3---3---3--3--|--3---3-------5---5---5--5--|
B |--2---2-x-x-4---4---4--4--|--5---5--x--x-5---5---5--5--|
E |--3---3-x-x-5---5---5--5--|--5---5--x--x-5---5---5--5--|
G#|--3---3-x-x-5---5---5--5--|--3---3--x--x-3---3---3--3--|
C#|--1---1-x-x-3---3---3--3--|---------x--x---------------|

     E.  S  S  S E.  E.  E  E     E.  S  S  S E.  E.  E  E
C#|--3---3-------3---3---3--3--|----------------------------|
F#|--3---3-------5---5---5--5--|--5---5-------5---5---5--5--|
B |--5---5--x--x-5---5---5--5--|--5---5--x--x-4---4---4--4--|
E |--5---5--x--x-5---5---5--5--|--2---2--x--x-2---2---2--2--|
G#|--3---3--x--x-3---3---3--3--|--0---0--x--x-0---0---0--0--|
C#|---------x--x---------------|---------x--x---------------|

     E.  S  S  S E.  E.  E  E     E.  S S S E.  E.  E  E
C#|----------------------------|--------------------------|
F#|--5---5-------5---5---5--5--|--------------------------|
B |--5---5--x--x-4---4---4--4--|--5---5-x-x-5---5---5--5--|
E |--2---2--x--x-2---2---2--2--|--5---5-x-x-5---5---5--5--|
G#|--0---0--x--x-0---0---0--0--|--3---3-x-x-3---3---3--3--|
C#|---------x--x---------------|--1---1-x-x-1---1---1--1--|

     E.  S S S E.  E.  E  E     E.  S  S  S E.  E.  E  E
C#|--------------------------|----------------------------|
F#|--------------------------|--5---5-------5---5---5--5--|
B |--7---7-x-x-7---7---7--7--|--5---5--x--x-4---4---4--4--|
E |--7---7-x-x-7---7---7--7--|--2---2--x--x-2---2---2--2--|
G#|--5---5-x-x-5---5---5--5--|--0---0--x--x-0---0---0--0--|
C#|--3---3-x-x-3---3---3--3--|---------x--x---------------|

     E.  S S S E.  E.  E  E     E.  S  S  S E.  E.  E  E
C#|--------------------------|--3---3-------3---3---3--3--|
F#|--3---3-----3---3---3--3--|--3---3-------5---5---5--5--|
B |--4---4-x-x-4---4---4--4--|--5---5--x--x-5---5---5--5--|
E |--5---5-x-x-5---5---5--5--|--5---5--x--x-5---5---5--5--|
G#|--5---5-x-x-5---5---5--5--|--3---3--x--x-3---3---3--3--|
C#|--3---3-x-x-3---3---3--3--|---------x--x---------------|

     E.  S  S  S E.  E.  E  E     E.  S  S  S E.  E.  E  E
C#|--3---3-------3---3---3--3--|----------------------------|
F#|--3---3-------5---5---5--5--|--5---5-------5---5---5--5--|
B |--5---5--x--x-5---5---5--5--|--5---5--x--x-4---4---4--4--|
E |--5---5--x--x-5---5---5--5--|--2---2--x--x-2---2---2--2--|
G#|--3---3--x--x-3---3---3--3--|--0---0--x--x-0---0---0--0--|
C#|---------x--x---------------|---------x--x---------------|

     E.  S  S  S E.  E.  E  E     E.  S S S E.  E.  E  E
C#|----------------------------|--------------------------|
F#|--5---5-------5---5---5--5--|--------------------------|
B |--5---5--x--x-4---4---4--4--|--5---5-x-x-5---5---5--5--|
E |--2---2--x--x-2---2---2--2--|--5---5-x-x-5---5---5--5--|
G#|--0---0--x--x-0---0---0--0--|--3---3-x-x-3---3---3--3--|
C#|---------x--x---------------|--1---1-x-x-1---1---1--1--|

     E.  S S S E.  E.  E  E     E.  S  S  S E.  E.  E  E
C#|--------------------------|----------------------------|
F#|--------------------------|--5---5-------5---5---5--5--|
B |--7---7-x-x-7---7---7--7--|--5---5--x--x-4---4---4--4--|
E |--7---7-x-x-7---7---7--7--|--2---2--x--x-2---2---2--2--|
G#|--5---5-x-x-5---5---5--5--|--0---0--x--x-0---0---0--0--|
C#|--3---3-x-x-3---3---3--3--|---------x--x---------------|

     E.  S S S E.  E.  E  E     E.  S  S  S E.  E.  E  E
C#|--------------------------|--3---3-------3---3---3--3--|
F#|--3---3-----3---3---3--3--|--3---3-------5---5---5--5--|
B |--4---4-x-x-4---4---4--4--|--5---5--x--x-5---5---5--5--|
E |--5---5-x-x-5---5---5--5--|--5---5--x--x-5---5---5--5--|
G#|--5---5-x-x-5---5---5--5--|--3---3--x--x-3---3---3--3--|
C#|--3---3-x-x-3---3---3--3--|---------x--x---------------|

     E.  S  S  S E.  E.  E  E     E.  S  S  S E.  E.  E  E
C#|--3---3-------3---3---3--3--|----------------------------|
F#|--3---3-------5---5---5--5--|--5---5-------5---5---5--5--|
B |--5---5--x--x-5---5---5--5--|--5---5--x--x-4---4---4--4--|
E |--5---5--x--x-5---5---5--5--|--2---2--x--x-2---2---2--2--|
G#|--3---3--x--x-3---3---3--3--|--0---0--x--x-0---0---0--0--|
C#|---------x--x---------------|---------x--x---------------|

     E.  S  S  S E.  E.  E  E     E.  S S S E.  E.  E  E
C#|----------------------------|--------------------------|
F#|--5---5-------5---5---5--5--|--------------------------|
B |--5---5--x--x-4---4---4--4--|--5---5-x-x-5---5---5--5--|
E |--2---2--x--x-2---2---2--2--|--5---5-x-x-5---5---5--5--|
G#|--0---0--x--x-0---0---0--0--|--3---3-x-x-3---3---3--3--|
C#|---------x--x---------------|--1---1-x-x-1---1---1--1--|

     E.  S S S E.  E.  E  E     E.  S  S  S E.  E.  E  E
C#|--------------------------|----------------------------|
F#|--------------------------|--5---5-------5---5---5--5--|
B |--7---7-x-x-7---7---7--7--|--5---5--x--x-4---4---4--4--|
E |--7---7-x-x-7---7---7--7--|--2---2--x--x-2---2---2--2--|
G#|--5---5-x-x-5---5---5--5--|--0---0--x--x-0---0---0--0--|
C#|--3---3-x-x-3---3---3--3--|---------x--x---------------|

     E.  S S S E.  E.  E  E     E.  S  S  S E.  E.  E  E
C#|--------------------------|--3---3-------3---3---3--3--|
F#|--3---3-----3---3---3--3--|--3---3-------5---5---5--5--|
B |--4---4-x-x-4---4---4--4--|--5---5--x--x-5---5---5--5--|
E |--5---5-x-x-5---5---5--5--|--5---5--x--x-5---5---5--5--|
G#|--5---5-x-x-5---5---5--5--|--3---3--x--x-3---3---3--3--|
C#|--3---3-x-x-3---3---3--3--|---------x--x---------------|

     E.  S  S  S E.  E.  E  E     E.  S  S  S E.  E.  E  E
C#|--3---3-------3---3---3--3--|----------------------------|
F#|--3---3-------5---5---5--5--|--5---5-------5---5---5--5--|
B |--5---5--x--x-5---5---5--5--|--5---5--x--x-4---4---4--4--|
E |--5---5--x--x-5---5---5--5--|--2---2--x--x-2---2---2--2--|
G#|--3---3--x--x-3---3---3--3--|--0---0--x--x-0---0---0--0--|
C#|---------x--x---------------|---------x--x---------------|

     E.  S  S  S E.  E.  E  E     E.  S S S E.  E.  E  E
C#|----------------------------|--------------------------|
F#|--5---5-------5---5---5--5--|--------------------------|
B |--5---5--x--x-4---4---4--4--|--5---5-x-x-5---5---5--5--|
E |--2---2--x--x-2---2---2--2--|--5---5-x-x-5---5---5--5--|
G#|--0---0--x--x-0---0---0--0--|--3---3-x-x-3---3---3--3--|
C#|---------x--x---------------|--1---1-x-x-1---1---1--1--|

     E.  S S S E.  E.  E  E     E.  S  S  S E.  E.  E  E
C#|--------------------------|----------------------------|
F#|--------------------------|--5---5-------5---5---5--5--|
B |--7---7-x-x-7---7---7--7--|--5---5--x--x-4---4---4--4--|
E |--7---7-x-x-7---7---7--7--|--2---2--x--x-2---2---2--2--|
G#|--5---5-x-x-5---5---5--5--|--0---0--x--x-0---0---0--0--|
C#|--3---3-x-x-3---3---3--3--|---------x--x---------------|

     E.  S S S E.  E.  E  E     E.  S  S  S E.  E.  E  E
C#|--------------------------|--3---3-------3---3---3--3--|
F#|--3---3-----3---3---3--3--|--3---3-------5---5---5--5--|
B |--4---4-x-x-4---4---4--4--|--5---5--x--x-5---5---5--5--|
E |--5---5-x-x-5---5---5--5--|--5---5--x--x-5---5---5--5--|
G#|--5---5-x-x-5---5---5--5--|--3---3--x--x-3---3---3--3--|
C#|--3---3-x-x-3---3---3--3--|---------x--x---------------|

     E.  S  S  S E.  E.  E  E     E.  S  S  S E.  E.  E  E
C#|--3---3-------3---3---3--3--|----------------------------|
F#|--3---3-------5---5---5--5--|--5---5-------5---5---5--5--|
B |--5---5--x--x-5---5---5--5--|--5---5--x--x-4---4---4--4--|
E |--5---5--x--x-5---5---5--5--|--2---2--x--x-2---2---2--2--|
G#|--3---3--x--x-3---3---3--3--|--0---0--x--x-0---0---0--0--|
C#|---------x--x---------------|---------x--x---------------|

     E.  S  S  S E.  E.  E  E     E.  S S S E.  E.  E  E
C#|----------------------------|--------------------------|
F#|--5---5-------5---5---5--5--|--------------------------|
B |--5---5--x--x-4---4---4--4--|--5---5-x-x-5---5---5--5--|
E |--2---2--x--x-2---2---2--2--|--5---5-x-x-5---5---5--5--|
G#|--0---0--x--x-0---0---0--0--|--3---3-x-x-3---3---3--3--|
C#|---------x--x---------------|--1---1-x-x-1---1---1--1--|

     E.  S S S E.  E.  E  E     E.  S  S  S E.  E.  E  E
C#|--------------------------|----------------------------|
F#|--------------------------|--5---5-------5---5---5--5--|
B |--7---7-x-x-7---7---7--7--|--5---5--x--x-4---4---4--4--|
E |--7---7-x-x-7---7---7--7--|--2---2--x--x-2---2---2--2--|
G#|--5---5-x-x-5---5---5--5--|--0---0--x--x-0---0---0--0--|
C#|--3---3-x-x-3---3---3--3--|---------x--x---------------|

     E.  S S S E.  E.  E  E
C#|--------------------------||
F#|--3---3-----3---3---3--3--||
B |--4---4-x-x-4---4---4--4--||
E |--5---5-x-x-5---5---5--5--||
G#|--5---5-x-x-5---5---5--5--||
C#|--3---3-x-x-3---3---3--3--||

Guitar III Paul Harmony
Im not going to bother wasting more space for a bunch of rests
Guitar III comes in at 5:53 and plays until 6:29
To make it a little easier to read this is from where the ending solo starts
      W                   W                   W
C#|--------------------|-------------------|-------------------|
F#|--------------------|-------------------|-------------------|
B |*-------------------|-------------------|-------------------|
E |*-------------------|-------------------|-------------------|
G#|--------------------|-------------------|-------------------|
C#|--------------------|-------------------|-------------------|

     W                     W                   W
C#|--------------------||-------------------|-------------------|
F#|--------------------||-------------------|-------------------|
B |-------------------*||-------------------|-------------------|
E |-------------------*||-------------------|-------------------|
G#|--------------------||-------------------|-------------------|
C#|--------------------||-------------------|-------------------|

     W                   H        Q.     S  S     E.   S    S  S  H         S  S
C#|-------------------|------------------8-10-|--12----Lbr--L-10-12-----------10-|
F#|-------------------|-----------------------|----------------------------13----|
B |-------------------|-----------------------|----------------------------------|
E |-------------------|-----------------------|----------------------------------|
G#|-------------------|-----------------------|----------------------------------|
C#|-------------------|-----------------------|----------------------------------|

      E.   S    S  S  Q     Q     E      E.   S   S  S  Q     Q     E
C#|--12----Lbr--L-10-12----10--------|---------------------------------|
F#|------------------------------13--|--12----Lbr-L-10-12--------------|
B |----------------------------------|-----------------------------14--|
E |----------------------------------|-----------------------14--------|
G#|----------------------------------|---------------------------------|
C#|----------------------------------|---------------------------------|

     E   E   E   E   E   E   E   E
C#|---------------------------------|
F#|---------------------15--15--17--|
B |-----16--16--17--17--------------|
E |--L------------------------------|
G#|---------------------------------|
C#|---------------------------------|

         E   E   E   Q     T  T  T  T  S  S  S  S
C#|--------------------------------17-20-17-------|
F#|--15g18--17------------------15----------18-20-|
B |-------------17--14-------14-------------------|
E |-----------------------15----------------------|
G#|-----------------------------------------------|
C#|-----------------------------------------------|

      S   E.   S  S  S  S  S  S  S  S  E   S  S     Q     E     Q     Q     E
C#|-----------------------------13----12--------|------------------------------|
F#|--20-/17---15-------15----15----15-----------|--12-----Lbr---L--------------|
B |--------------16-17----12-----------------12-|--------------------------14--|
E |---------------------------------------15----|--------------------14--------|
G#|---------------------------------------------|------------------------------|
C#|---------------------------------------------|------------------------------|
   
      |--3--|     |--3--|  |--3--|  |--3--|  |--3--|  |--3--|  |--3--|  |--3--|
      S  S  S     S  S  S  S  S  S  S  S  S  S  S  S  S  S  S  S  S  S  S  S  S
C#|-----------------------------------------------------------------------------|
F#|--------------------------------------13-15-13-12----------------------------|
B |--16-14-12-------------------12-14-16-------------14-12-10-------------------|
E |-----------12g15-14-12-14-15-------------------------------14-12-10----------|
G#|--------------------------------------------------------------------14-12-10-|
C#|-----------------------------------------------------------------------------|

      Q.      Q.       Q        E   Q     Q     Q      E
C#|-------------------------|---L-------------------------|
F#|-------------------------|-----------------------------|
B |-------------------------|------------------------/17--|
E |------------------/17----|------------------17---------|
G#|----------15-------------|------17----19---------------|
C#|--15---------------------|-----------------------------|

      Q     E    Q     E   E   E      E   Q     H          S  S
C#|-------------------------------|---L--------10~--------------|
F#|-------------------------------|-----------------------13-12-|
B |--16-----Lbr--L----12----------|------12---------------------|
E |-----------------------12--14--|-----------------------------|
G#|-------------------------------|-----------------------------|
C#|-------------------------------|-----------------------------|

      E   E   E   Q     E   T  T  S  E      E   E   E   Q     E   T  T  S  E
C#|-------------------------------------|-------------------------------------|
F#|-------------------------------------|-------------------------------------|
B |-------------------------------------|--------------12---------------------|
E |----------14--15----14--12-14-12-----|------12--15--------15--14-15-14-12--|
G#|------12-------------------------15--|--14---------------------------------|
C#|--13---------------------------------|-------------------------------------|

      E   E   E   Q     Q     E         W                    W
C#|------------------------------|-----------------------|--------------------|
F#|--------------------13----12--|-----------------------|--13----------------|
B |----------12--14--------------|------L----------------|--------------------|
E |------14----------------------|-----------------------|--------------------|
G#|--15--------------------------|-----------------------|--------------------|
C#|------------------------------|-----------------------|--------------------|

     W                    W                   W
C#|--------------------|-------------------|-------------------|
F#|--L~----------------|-------------------|-------------------|
B |--------------------|-------------------|-------------------|
E |--------------------|-------------------|-------------------|
G#|--------------------|-------------------|-------------------|
C#|--------------------|-------------------|-------------------|

Guitar IV Paul plays during the Second Verse
His Part comes in at 4:05 and plays until 4:39
This Tab will start from where the Piano is playing
     W                   W
C#|-------------------|-------------------|
F#|-------------------|-------------------|
B |-------------------|-------------------|
E |-------------------|-------------------|
G#|-------------------|-------------------|
C#|-------------------|-------------------|

     W                   W                   W                   W
C#|-------------------|-------------------|-------------------|-------------------|
F#|-------------------|-------------------|-------------------|-------------------|
B |-------------------|-------------------|-------------------|-------------------|
E |-------------------|-------------------|-------------------|-------------------|
G#|-------------------|-------------------|-------------------|-------------------|
C#|-------------------|-------------------|-------------------|-------------------|

                            With delay
     W                      Q.         Q.      Q        E   H.            E
C#|-------------------||---20---------19------------|------------------------|
F#|-------------------||----------------------20----|---L--17----------------|
B |-------------------||*---------------------------|---------------------L--|
E |-------------------||*---------------------------|------------------------|
G#|-------------------||----------------------------|------------------------|
C#|-------------------||----------------------------|------------------------|

      Q.      H         E      W                      Q.      Q.      Q
C#|------------------------|---------------------||--20------19------------|
F#|--15------17---------L--|--17-----------------||------------------20----|
B |------------------------|--------------------*||------------------------|
E |------------------------|--------------------*||------------------------|
G#|------------------------|---------------------||------------------------|
C#|------------------------|---------------------||------------------------|

      E   H.            E      Q.      H         E      W
C#|------------------------|------------------------|--------------------|
F#|---L--17----------------|--15------17---------L--|--17----------------|
B |---------------------L--|------------------------|--------------------|
E |------------------------|------------------------|--------------------|
G#|------------------------|------------------------|--------------------|
C#|------------------------|------------------------|--------------------|

      Q.      Q.      Q        E   H.            E      H        H
C#|--20------19------------|------------------------|---------------------|
F#|------------------20----|---L--17----------------|--15-----------------|
B |------------------------|---------------------L--|---------------------|
E |------------------------|------------------------|---------------------|
G#|------------------------|------------------------|---------------------|
C#|------------------------|------------------------|---------------------|

Guitar V Dusty Acoustic

Dusty Plays from the end of the piano part to the end of the clean solo
(3:55-5:21)

This Tab starts from the beginning of the piano part and goes to the end of the clean solo.

         W                   W                   W
C#|-------------------|-------------------|-------------------|
F#|-------------------|-------------------|-------------------|
B |-------------------|-------------------|-------------------|
E |-------------------|-------------------|-------------------|
G#|-------------------|-------------------|-------------------|
C#|-------------------|-------------------|-------------------|

     ^                                       ^                   ^
     W                   W                   W                   W
C#|-------------------|--L----------------|-------------------|-------------------|
F#|-------------------|-------------------|-------------------|-------------------|
B |--9----------------|--L----------------|--7----------------|--9----------------|
E |--7----------------|--L----------------|--5----------------|--7----------------|
G#|--7----------------|--L----------------|--5----------------|--7----------------|
C#|--5----------------|-------------------|--3----------------|--5----------------|

      E  S E  S E  S E  S E  S S    E  S E  S E  S E  S E  S S
C#|------------------------------|-----------------------------|
F#|--------5--5------5--5------5-|-------5--5------5--5------5-|
B |*-----------------------------|-----------------------------|
E |*-----------------------------|-----------------------------|
G#|---7--7------7--7------7--7---|--3--3------3--3------3--3---|
C#|---5--5------5--5------5--5---|--1--1------1--1------1--1---|

     E  S E  S E  S E  S E  S S    E  S E  S E  S E  S E  S S
C#|-----------------------------|------------------------------||
F#|-------6--6------6--6------6-|-------5--5------5--5------5--||
B |-----------------------------|-----------------------------*||
E |-----------------------------|-----------------------------*||
G#|--5--5------5--5------5--5---|--7--7------7--7------7--7----||
C#|--3--3------3--3------3--3---|--5--5------5--5------5--5----||

     E  S E  S E  S E  S E  S S    E  S E  S E  S E  S E  S S
C#|-----------------------------|-----------------------------|
F#|-------5--5------5--5------5-|-------5--5------5--5------5-|
B |-----------------------------|-----------------------------|
E |-----------------------------|-----------------------------|
G#|--7--7------7--7------7--7---|--3--3------3--3------3--3---|
C#|--5--5------5--5------5--5---|--1--1------1--1------1--1---|

     E  S E  S E  S E  S E  S S    E  S E  S E  S E  S E  S S
C#|-----------------------------|-----------------------------|
F#|-------6--6------6--6------6-|-------5--5------5--5------5-|
B |-----------------------------|-----------------------------|
E |-----------------------------|-----------------------------|
G#|--5--5------5--5------5--5---|--7--7------7--7------7--7---|
C#|--3--3------3--3------3--3---|--5--5------5--5------5--5---|

                                                                 ^
     E  S E  S E  S E  S E  S S    E  S E  S E  S E  S E  S S    W
C#|-----------------------------|-----------------------------|-------------------|
F#|-------5--5------5--5------5-|-------5--5------5--5------5-|--6----------------|
B |-----------------------------|-----------------------------|-------------------|
E |-----------------------------|-----------------------------|--5----------------|
G#|--7--7------7--7------7--7---|--3--3------3--3------3--3---|--5----------------|
C#|--5--5------5--5------5--5---|--1--1------1--1------1--1---|--3----------------|

     ^                   ^                   ^                   ^
     W                   W                   W                   W
C#|-------------------|-------------------|-------------------|-------------------|
F#|-------------------|-------------------|--5----------------|--6----------------|
B |--9----------------|--9----------------|-------------------|-------------------|
E |--7----------------|--7----------------|--3----------------|--5----------------|
G#|--7----------------|--7----------------|--3----------------|--5----------------|
C#|--5----------------|--5----------------|--1----------------|--3----------------|

     ^                   ^                   ^                   ^
     W                   W                   W                   W
C#|-------------------|-------------------|-------------------|-------------------|
F#|--5----------------|--5----------------|--5----------------|--6----------------|
B |-------------------|-------------------|-------------------|-------------------|
E |--7----------------|--7----------------|--3----------------|--5----------------|
G#|--7----------------|--7----------------|--3----------------|--5----------------|
C#|--5----------------|--5----------------|--1----------------|--3----------------|

     ^                   ^                   ^                   ^
     W                   W                   W                   W
C#|-------------------|-------------------|-------------------|-------------------|
F#|--5----------------|--5----------------|--5----------------|--6----------------|
B |-------------------|-------------------|-------------------|-------------------|
E |--7----------------|--7----------------|--3----------------|--5----------------|
G#|--7----------------|--7----------------|--3----------------|--5----------------|
C#|--5----------------|--5----------------|--1----------------|--3----------------|

     ^                   ^                   ^                   ^
     W                   W                   W                   W
C#|-------------------|-------------------|-------------------|-------------------|
F#|--5----------------|--5----------------|--5----------------|--6----------------|
B |-------------------|-------------------|-------------------|-------------------|
E |--7----------------|--7----------------|--3----------------|--5----------------|
G#|--7----------------|--7----------------|--3----------------|--5----------------|
C#|--5----------------|--5----------------|--1----------------|--3----------------|

     ^
     W
C#|-------------------||
F#|--5----------------||
B |-------------------||
E |--7----------------||
G#|--7----------------||
C#|--5----------------||

************************************

| *   Natural harmonic
| PM  Palm mute
| x   Dead note
| \   Slide down
| /   Slide up
| br  Bend release
| p   Pull-off
| ~   Vibrato
| g   Grace note
| h   Hammer-on
| s   Slide

Duration Legend
---------------
W - whole
H - half
Q - quarter
E - 8th
S - 16th
T - 32nd
X - 64th
. - note dotted
|-n-|  - n-tuplets

************************************
Suggest correction
comments
print report bad tab
15 comments total. Showing first comments.
0 reply
guitarwannabe16 1,036 Jan 27, 2007 12:30 PM

Looks good man. One of the better tabs for this song. Thanks alot.

0 reply
richplaysguitar 10 Jun 01, 2007 10:11 AM

this shit is we todd ed .. good tab man

0 reply
carrotcake 1,997 Jun 16, 2007 06:57 PM

jesus, how long did it take to tab this?

guest
You may want to rate the tab now too:
select rating
Wanna post a correction for this tab? Suggest correction