Oops, an error
Loading. Please wait.

Shevanel Take 2 Tab

version 3
version 3

Whole song

Interactive

2,536 views 15 this week
no commentswrite comment
1 2 3 4 5
excellent!
x 7
add to favorites
launch autoscroll
font size
0
reset
how to read this tab
guitar tuner
Tab Pro tools
  • play this tab
  • loop segment
  • change instrument
  • show fretboard
  • metronome
Autoscroll
slow
fast
+/-
esc
set tempo
stop
Contributor
Difficulty
intermediate
Shevanel (Take 2)
By: Between the Buried and Me

This is my 4th tab, hopefully it's a good one. I decided to do this one, because it's
my favorite song by this artist, and i wanted to combine the two guitar parts together
for the fun of it for everyone. That is if all of you want to play bothe of the guitar 
heh. Anyway, i hope you enjoy it, and have fun. This song is such a relaxing
(To me anyway) Please rate it and comment telling me what you think. Btw, the strumming 
slow alternate strumming

Intro:
e|---------------------------------------------------------------|
B|---------------------------------------------------------------|
G|-5-5555--5-5555--5-5555--5-5555--5-5555-3-3333--8-8888--8-8888-|
D|-6-6666--6-6666--6-6666--6-6666--6-6666-4-4444--5-5555--5-5555-|
A|-4-4444--4-4444--4-4444--4-4444--4-4444-4-4444--6-6666--6-6666-|
E|-4-4444--4-4444--4-4444--4-4444--6-6666-2-2222-----------------|

Verse: (Just like Intro but played 2 times)
My head will not rest on this pillow,
As it's gripped in my arms tonight,
Like reality, too tight.
If a dream could last forever,
I would hold you here time,
Need not freeze, I need not fear.

Pre-Chorus:(the guitar is played with the lyrics)
This world inside,
Is a world I have longed to find.
e|-------------------------------------------------------------------|
B|-------------------------------------------------------------------|
G|-----------------4-4444--4-4444------------------8-8888-9p8-8-8888-|
D|-6-6666--6-6666--6-6666--6-6666--6-6666--6-6666--9-9999-9---9-9999-|
A|-7-7777--7-7777--4-4444--4-4444--7-7777--7-7777--7-7777-7---7-7777-|
E|-5-5555--5-5555--4-4444--4-4444--5-5555--5-5555--------------------|

Chorus: (guitar played with lyrics)
And I will not be afraid to love,
I won't be afraid to lose,
What I once deprived myself of.
e|----------------------------------------------------------------|
B|----------------------------------------------------------------|
G|-8-8888--8-8888----------------------------------3-3333--3-3333-|
D|-9-9999--9-9999--7-7777--7-7777--6-6666--6-6666--4-4444--4-4444-|
A|-9-9999--9-9999--7-7777--7-7777--6-6666--6-6666--4-4444--4-4444-|
E|-7-7777--7-7777--5-5555--5-5555--4-4444--4-4444--2-2222--2-2222-|
(there's another solo before this one, but i don't really know how to play it
<:(..)
Solo A:
e|-5-3-2-5--5h7-------------------------2-----5~~\0~0h2p0-|
B|--------------3h5-3h5-3h5-3h5-3h5-3h5---5-3-------------|
G|--------------------------------------------------------|
D|--------------------------------------------------------|
A|--------------------------------------------------------|
E|--------------------------------------------------------|

Solo B:
e|-4-5-7~~~~7~~~~~7-5-4-------------6~~7~~~7b~~11--------------|
B|----------------------7-5-4-5-7~~~--------------7-7h9~~\5~~7-|
G|-------------------------------------------------------------|
D|-------------------------------------------------------------|
A|-------------------------------------------------------------|
E|-------------------------------------------------------------|

Solo C:
e|-6~7~~~7~~~~7h8~~~~~8h10~10~~~\7~5-5h7~7\3-3~~3~~~|
B|--------------------------------------------------|
G|--------------------------------------------------|
D|--------------------------------------------------|
A|--------------------------------------------------|
E|--------------------------------------------------|

(Sorry, but i don't have time to tab the rest of the lyrics, i'm in a big hurry)

|o(Solo A)(Solo B)(Solo C)o|x2
|o                        o|

(Solo A) (fade)
Enjoy! i hope you like my tab! :) please rate and comment, thanks! rock on!! B)
comments
print report bad tab
I want to post or [tab]
guest
You may want to rate the tab now too:
select rating
Please do not post tabs as comments. Select "correction" instead!