Oops, an error
Loading. Please wait.

Us And Them Bass Tab

776 views 1 this week
no commentswrite comment
1 2 3 4 5
please rate
add to favorites
launch autoscroll
font size
0
reset
guitar tuner
Autoscroll
slow
fast
+/-
esc
set tempo
stop
Help us to improve Ultimate-Guitar.com Take our survey!
×
Author
Tuning: Standard


|------7----------7----------9----------9-----|
|---------7----------7----------7----------7--|
|-5~---------5~---------5~---------5~---------|
|---------------------------------------------|

|------7--7-------7--7-------7----------7----------|
|-------------------------------7----------7-------|
|-5~---------5~---------5~---------5~---------5~---|
|--------------------------------------------------|

|-7-------------|
|----7----------|
|-------5~------|
|---------------|
this keeps on repeating for awile then the Chorus plays


|-----------------------------------|
|-----------------------------------|
|---2---2---2---2---2---2---2---0---|
|-----------------------------------|

|-----------------------------------|
|-----------------------------------|
|-------------------3---3---3---0---|
|---3---3---3---3-------------------|

All of that ^ is the whole song, just repeat it.
Suggest correction
Give kudos to tab author, rate the tab!
1 2 3 4 5
comments
print report bad tab
guest
You may want to rate the tab now too:
select rating
Wanna post a correction for this tab? Suggest correction