Oops, an error
Loading. Please wait.

Viridian Bass Tab

version 2
version 2

Whole song

392 views 3 this week
1 commentread comment
1 2 3 4 5
3 more votes to show rating
add to favorites
launch autoscroll
font size
0
reset
guitar tuner
Autoscroll
slow
fast
+/-
esc
set tempo
stop
Help us to improve Ultimate-Guitar.com Take our survey!
×
Author
Difficulty
Tuning
advanced
C# G# C# F# A# D#
Tempo = 135BPM
The natural harmonic at the end ([16]) can be played off the fret-board. 

E |----------|
B |----------|
F#|----------|
C#|9~--------|
G#|----------|

E |-------------------16-17----|
B |-------------14-------------|
F#|-------15-------------------|
C#|-12-------------------------|
G#|----------------------------|

E |----------------(19)/21--------19--17--16------------|
B |-17---16-------------------------------------19------|
F#|-----------19--------------------------------------19|
C#|-----------------------------------------------------|
G#|-----------------------------------------------------|
                          
                                    Triplets
E |-------------------------|-19--19--19--19--19-19---|
B |-------------------------|---16--16--16--16---16---|
F#|-17--19--17-19-17--16----|-------------------------|
C#|----------------------17-|-------------------------|
G#|-------------------------|-------------------------|

E |----------------------------14-16--21--19--23---19----------|
B |------------------------14-16-------------------------------|
F#|---------12-14/15-14-15-------------------------------------|
C#|---12-14----------------------------------------------------|
G#|13----------------------------------------------------------|
                       
                              Natural Harmonics
E |------------(19)/21--19--|-[24]-------------21--19--19-----|
B |-16--17--16--------------|-[24]---[16]---------------------|
F#|-------------------------|---------------------------------|
C#|-------------------------|---------------------------------|
G#|-------------------------|---------------------------------|

                                                          
E |----------------18-19-21-18-----------18-23--21--19-18-------(18)/19--18|
B |--------18-19-21--------------------19--------------19--16--------------|
F#|17-19-21--------------------------21------------------------------------|
C#|------------------------------------------------------------------------|
G#|------------------------------------------------------------------------|

E |-14--16--18--13--14--16---------------14--13-14-13-11-13-14-13--|
B |-------------------------(14)/16--14----------------------------|
F#|----------------------------------------------------------------|
C#|----------------------------------------------------------------|
G#|----------------------------------------------------------------|

E |14-14-13-11--------------------------|
B |-----------14-12-11-12---------------|
F#|----------------------14-12-11-12----|
C#|----------------------------------10-|
G#|-------------------------------------|

E |--------7---------9---11-9---------14-11-13----------|
B |----6-7-------7-9----------12-9-11----------14-11-12-|
F#|5-7-------7-9----------------------------------------|
C#|-----------------------------------------------------|
G#|-----------------------------------------------------|

E |16-14-13----------------13-14-13------------------|
B |---------16-14-12-14-16----------16-14-12---------|
F#|------------------------------------------14/16-14|
C#|--------------------------------------------------|
G#|--------------------------------------------------|

E |-------16---14--14/13-13-|-------13-14------19-18-16-----21-|
B |-16-18-------------------|-12-14-------16-------------19----|
F#|-------------------------|----------------------------------|
C#|-------------------------|----------------------------------|
G#|-------------------------|----------------------------------|

E |-(21)/23--(21)/23-----21-|
B |-------------------------|
F#|-(19)/21--(19)/21-----19-|
C#|-------------------------|
G#|-------------------------|

 [bend 24 half way up, down to 23]
E |-24^-----23-------------------|
B |-------------21--(21)---------|
F#|----------------------19------|
C#|--------------------------0---|
G#|------------------------------|

E |-18--20--18--20--23-23--18--20--18--20--18--20--21-21-20-18----18-|
B |------------------------------------------------------------21----|
F#|------------------------------------------------------------------|
C#|------------------------------------------------------------------|
G#|------------------------------------------------------------------|

                                                      Natural Harmonic
E |-18--20--18--20--23-23--18--20-----18--20--21--23--[16]--|
B |--------------------------------21-----------------------|
F#|---------------------------------------------------------|
C#|---------------------------------------------------------|
G#|---------------------------------------------------------|

E |------------------------------------------------|
B |------------------------------------------------|
F#|-[24]-------------------------------------------|
C#|-------------------------------------------[24]-|
G#|-----------------------[16]---------------------|

For Between the Buried and Me covers, visit http://www.youtube.com/daltonmfwc
Suggest correction
Give kudos to tab author, rate the tab!
1 2 3 4 5
comments
print report bad tab
1 comment total.
0 reply
XenititesX 114 Jun 25, 2012 10:02 AM

E |----------------18-19-21-18-----------18-23--21--19-18-------(18)/19--18|
B |--------18-19-21--------------------19--------------19--16--------------|
F#|17-19-21--------------------------21------------------------------------|
C#|------------------------------------------------------------------------|
G#|------------------------------------------------------------------------|


This bit is a little crunched together. The 18 shouldn't be on top of the 19.

guest
You may want to rate the tab now too:
select rating
Wanna post a correction for this tab? Suggest correction