Oops, an error
Loading. Please wait.

Downlow bass

version 1
version 1

Whole song

Interactive

587 views 3 this week
no commentswrite comment
1 2 3 4 5
3 more votes to show rating
add to favorites
×
Save as Personal and add changes to this tab that will be seen only by you. Learn more ›
×
You can save this tab as Personal to edit and correct it or add notes. All changes will be seen only by you. Learn more »
launch autoscroll
font size
0
reset
guitar tuner
edit
Autoscroll
slow
fast
+/-
esc
set tempo
stop
Author
Difficulty
Artist: Betzefer
Song: Down Low
Bass 4-String
Standard-Tuning
Tabbed by: PogoGnom


Intro
|-0-3-00-3-00-666--------|
|------------------------|
|------------------------|
|------------------------|  play 3 times

|-0-3-00-3-00-3-0-66666666------------|
|-------------------------------------|
|-------------------------------------|
|-------------------------------------|   play 1 time

In the second part where the drums play too, just do the same again.


First Verse
(“all problems consist”…)

Do the same as in the intro until 0:34, then do this one for the little bridge:
|-6333-6333-63-6666----------|
|----------------------------|
|----------------------------|
|----------------------------|


(“on legacy they’ll spit”)

You do the intro until 0:48, then you do:
|-00-633633633633-00-----------|
|------------------------------|
|------------------------------|
|------------------------------|

Then you go on like before.


Chorus
|-33-000-33-55-66---------|
|-------------------------|
|-------------------------|
|-------------------------|

At chorus end you have to pay a bit different, just hear to the guitar.

Outro
Play whole time:
|3|
on the E-String.


I don’t know if it is right or not, but it sounds good…just try out and rate!
Good luck and much fun ;)

            
            
Suggest correction
Creating personal tab
Creating personal tab
You can edit any tab online and save it as your Personal.

You can edit, replace or remove any tab part or add personal notes – all changes will be seen only by you.

Personal tabs can be accessed anytime from any device, even offline.
Learn more »
Give kudos to tab author, rate the tab!
1 2 3 4 5
comments
print report bad tab
guest
You may want to rate the tab now too:
select rating
Wanna post a correction for this tab? Suggest correction