Oops, an error
Loading. Please wait.

Matter Vs Space tab

by Beulah
22 views 1 this week
no commentswrite comment
1 2 3 4 5
3 more votes to show rating
add to favorites
×
Save as Personal and add changes to this tab that will be seen only by you. Learn more ›
×
You can save this tab as Personal to edit and correct it or add notes. All changes will be seen only by you. Learn more »
launch autoscroll
font size
0
reset
how to read this tab
guitar tuner
edit
Autoscroll
slow
fast
+/-
esc
set tempo
stop
   A      D       G
e|-----------------------|
B|-----------------------|
G|-6------7-------4------|
D|-7------7-------5------|
A|-7------5-------5------|
E|-5------5-------3------|

  A        D        A         E
e|---------------------------------------|
B|---------------------------------------|
G|---------------------------------------|
D|7-7-7-7-/12-12-\-7-7-7-7-7-/14-14-14-14|
A|7-7-7-7-/12-12-\-7-7-7-7-7-/14-14-14-14|
E|5-5-5-5-/10-10-\-5-5-5-5-5-/12-12-12-12|

Nose down,what you gonna do when
Parties fade and your makeup starts to smear
Only scene is a grand entrance
Silver screen is another brand new year

D
(play indicated chords on eighth notes, downstrokes only)
(not finna tab this banjo clusterfuck)
In a sea of talcum powder
Kids swim and they lose their color

G
e|----------------------------------------------------------------------------|
B|----------------------------------------------------------------------------|
G|-----------2-2-2-2-4-4-4-4-2-2-2-2---------2-2-2-2-4-4-4-4-7-7-7-7----------|
D|-5-5-5-5---------------------------5-5-5-5----------------------------------|
A|-5-5-5-5---------------------------5-5-5-5----------------------------------|
E|-3-3-3-3---------------------------3-3-3-3----------------------------------|

Clock strikes twelve
Say, don't ya feel so well?

D
As the confetti falls
               G
Timed with the tears
D
No one wants to hear
                    G
About your hardwood floors

  Amaj     Dmaj     Amaj          Emaj
e|--------------------------------------|
B|--------------------------------------|
G|--------------------------------------|
D|7-7-7-7-12-12-/-7-7-7-7-7-14-14-14-14-|
A|7-7-7-7-12-12-/-7-7-7-7-7-14-14-14-14-|
E|5-5-5-5-10-10-/-5-5-5-5-5-12-12-12-12-|

In stalls of the magic markers
Boys and girls come and go like coats of paint
All you've got is a pretty name
You shouldn't be killed off in the very first scene

D
On the porch with the smokers
Party talk gets much older
G
Clock strikes twelve
Say, don't ya feel so well?
D
As the confetti falls
Timed with the tears
G
No one wants to hear
About your hardwood floors

(Trumpet melody notes: A D E Db)

************************************

| /  Slide up
| \  Slide down

************************************

            
            
Suggest correction
Creating personal tab
Creating personal tab
You can edit any tab online and save it as your Personal.

You can edit, replace or remove any tab part or add personal notes – all changes will be seen only by you.

Personal tabs can be accessed anytime from any device, even offline.
Learn more »
Give kudos to tab author, rate the tab!
1 2 3 4 5
comments
print report bad tab
guest
You may want to rate the tab now too:
select rating
Wanna post a correction for this tab? Suggest correction