Oops, an error
Loading. Please wait.

Not Too Late For Love Tab

356 views 1 this week
no commentswrite comment
1 2 3 4 5
please rate
add to favorites
launch autoscroll
font size
0
reset
how to read this tab
guitar tuner
Tab Pro tools
  • play this tab
  • loop segment
  • change instrument
  • show fretboard
  • metronome
×
Best way to learn
"Not Too Late For Love"
Autoscroll
slow
fast
+/-
esc
set tempo
stop
Contributor
Intro

e|------------------------------------------------------------------------------|
B|---5-----8----6---------5-----8-----11----------------------------------------|
G|---5-----7----5---------5-----7-----10----------------------------------------|
D|---5-----10---8---------5-----10----13----------------------------------------|
A|------------------------------------------------------------------------------|
E|--------(10)---(8)--------------(10)---(13)-----------------------------------|

Verses

        Bb      F/a    Ab    Ebsus2

e|---6-----5-----4----6---------------------------------------------------------|
B|---6-----6-----4----6---------------------------------------------------------|
G|---7-----5-----5----8---------------------------------------------------------|
D|---8-----7-----6----8---------------------------------------------------------|
A|---8-----8-----6----6---------------------------------------------------------|
E|---6-----5-----4--------------------------------------------------------------|

chorus

       Bb   Dminor                                       C/e     G       Bb

e|---------5----                           eI-----------------|
B|---------6----                           BI----8----10------|
G|---------7----   3 times  then   GI----9----10--------------|
D|---8-----7----                          DI----10---10----8--|
A|---8-----5----                          AI----7-----8----8--|
E|---6----------                           EI---------------6-|


       Bb   Dminor                                       Eb      Dm7   Cm7  Bb

e|---------5----                           eI-------------------------|
B|---------6----                           BI----8----6----4-----3----|
G|---------7----   3 times  then   GI----8----5----3-----3------------|
D|---8-----7----                          DI----8----7----5-----3-----|
A|---8-----5----                          AI----6----5----3-----1-----|
E|---6----------                           EI-------------------------|

I think thats all the parts, just work out the structure for yourself and its a pretty easy song!

Thanks

Neil.Denman@hotmail.co.uk

| /  slide up
| \  slide down
| h  hammer-on
| p  pull-off
| ~  vibrato
| +  harmonic
| x  Mute note
comments
We did not receive enough feedback on this tab! Please rate:
print report bad tab
1 2 3 4 5
I want to post or [tab]
guest
You may want to rate the tab now too:
select rating
Please do not post tabs as comments. Select "correction" instead!