Oops, an error
Loading. Please wait.

Howl tab

version 2
version 2

Whole song

15,473 views 21 this week
3 commentsread comments
1 2 3 4 5
x 16
add to favorites
×
Save as Personal and add changes to this tab that will be seen only by you. Learn more ›
×
You can save this tab as Personal to edit and correct it or add notes. All changes will be seen only by you. Learn more »
launch autoscroll
font size
0
reset
how to read this tab
guitar tuner
edit
Autoscroll
slow
fast
+/-
esc
set tempo
stop
Author
Difficulty
I made this from watching various live performances and a video tutorial. The solo is 
credited to verhoevc and is from his/her tab.


Intro/Main Riff:
------0-------------------------------0-----------------\12--12-------|
------0-------------------------------0------------------x------11----|
------x-------------------------------x------------------x------------|
------7b9r7p5-------------------------7b9r7p5-----------\12-----------|
---------------7p5-----7/----------------------7p5--------------------|
--0-----------------0------3------0-----------------0-----------------|

------0---------------------------------------------|
------0---------------------------------------------|
------x---------------------------------------------|
------7b9r7p5---------------------------------------|
---------------7p5-----7/-------------5---5-6-------|
--0-----------------0------3----3/7-7---7-----------|


Verse:
------------------------------------------|
---------------------------3-3---3--------|
---------------------------2-2-2-2-2------|
---------------------------0-0-2-0-2------|
------5h7-7-5-5-5-5h7----------0---0------|
--0-0-0---0-0-0-0-0-0----------------3----|


Pre-Chorus:
------------------------------------------------------|
----------------------------------14--14/--/12--------|
-----2b----------------------/12--14--14/--/12--------|
----------4-4-4-4-4-4-4-4-----------------------14----|
----------2-2-2-2-2-2-2-2-----------------------------|
--3---------------------------------------------------|
          . . . . . . . .

---------------------------------------|
----------14---------------------------|
-----/12--14--14-12-14p12--------------|
---------------------------14p12-14----|
---------------------------------------|
---------------------------------------|


Chorus:
-------------------------------------------------------------|
-------------------------------------------------------------|
-------------------------------------------------------------|
-------------------------------------------------------------|
-----7-----7-----7-----7p5-7-----7------5---9----------------|
--0-----0-----0-----0---------0-----0---3---7----------------|


Bridge: (Not too sure about this part)
-------------------------------------------------|
-------------------------------------------------|
--6-6-6-6-6-6-6-6-8-8-8-8-9-9-9-9----------------|
--7-7-7-7-7-7-7-7-7-7-7-7-7-7-7-7----------------|
--0-0-0-0-0-0-0-0-0-0-0-0-0-0-0-0----------------|
-------------------------------------------------|
  . . . . . . . . . . . . . . . .


Solo: (This is not my work. All credit for this portion of the song goes to verhoevc and 
is from the tab submited by him/her.)
-----------------------------------------------------------15----|
--10b12-10-8-10-b12r10-8-------------/8--/10--/11--/12-----------|
---------------------------7/6-----------------------------------|
-----------------------------------------------------------------|
-----------------------------------------------------------------|
-----------------------------------------------------------------|


I couldn't figure out the rest of the solo. Any help on it would be awesome.

            
            
Suggest correction
Creating personal tab
Creating personal tab
You can edit any tab online and save it as your Personal.

You can edit, replace or remove any tab part or add personal notes – all changes will be seen only by you.

Personal tabs can be accessed anytime from any device, even offline.
Learn more »
comments
print report bad tab
3 comments total.
+1 reply
Shwax 256 Oct 16, 2013 11:14 AM

Neither tab comes close to nailing down the bridge & solo, but your verse & chorus definitely seem right.

0 reply
HarleyC 10 Dec 25, 2014 03:18 PM, edited at 08:23 pm

the pre chorus goes like this I think hold these two notes for a second before sliding down ||e|-----------------------|----------------------------------------------------|B|--/15--14--15\--12-----|---/15--14---------------------------------------G|--/16--14--16\--12-----|---/16--14---14-12-14-12------------------D|--------------------14-|--------------------------14p12h14-------|A|-----------------------|---------------------------------------------------|E|-----------------------|---------------------------------------------------|

0 reply
HarleyC 10 Dec 25, 2014 03:26 PM

the pre chorus goes like this I think
hold these two notes for a second before sliding down
||
e|-----------------------|----------------------------------------------------|
B|--/15--14--15\--12-----|---/15--14---------------------------------------
G|--/16--14--16\--12-----|---/16--14---14-12-14-12------------------
D|--------------------14-|--------------------------14p12h14-------|
A|-----------------------|---------------------------------------------------|
E|-----------------------|---------------------------------------------------|


sorry i'm not great at tabbing,hope this helps!
my other comment got really messed up and i'm not sure how, my bad

guest
You may want to rate the tab now too:
select rating
Wanna post a correction for this tab? Suggest correction