Oops, an error
Loading. Please wait.

Running To The Edge tab

229 views 6 this week
no commentswrite comment
1 2 3 4 5
3 more votes to show rating
add to favorites
×
Save as Personal and add changes to this tab that will be seen only by you. Learn more ›
×
You can save this tab as Personal to edit and correct it or add notes. All changes will be seen only by you. Learn more »
launch autoscroll
font size
0
reset
how to read this tab
guitar tuner
edit
Autoscroll
slow
fast
+/-
esc
set tempo
stop
About this tab version
Live Version - Wacken 2014 - Rhythm Part Only. Was this info helpful? Yes No
[Intro]
B |------------------------------------------------------------------------------|
F#|------------------------------------------------------------------------------|
D |------------------------------------------------------------------------------|
A |------------------------------------------------------------------------------|
E |--7-7-----7/8-----7--7-7-----10\8-----7--7-7-----7/8-----7--7-7-----8/12-13~--|
B |--5-5--0--5/6--0--5--5-5--0---8\6--0--5--5-5--0--5/6--0--5--5-5--0--6/10-11~--|
p.m.      .       .          .        .          .       .          .

B |-------------------------------------------------|
F#|-------------------------------------------------|
D |-------------------------------------------------|
A |----------------------7--------------------------|
E |--7-7---8-5---7-7-7---5-6~----7-7---8---5--7-7\--|
B |--5-5-0-6-3---5-5-5-0---------5-5-0-6-0-3--5-5\--|
p.m.     .             .             . 

[Verse]
B |-------------------------------------------------------------------------|
F#|-------------------------------------------------------------------------|
D |-------------------------------------------------------------------------|
A |-------------------------------------------------------------------------|
E |--7----------------------------------7-7-----7/8-----7--7-7-----10\8-----|
B |--5---5-5-5-5-5-5-5-5-5-5-3-5-3-5~---5-5--0--5/6--0--5--5-5--0---8\6--0--|
p.m.     . . . . . . . . . .                 .       .          .        .

B |-------------------------------------------------------------------------|
F#|-------------------------------------------------------------------------|
D |-------------------------------------------------------------------------|
A |-------------------------------------------------------------------------|
E |--7----------------------------------7-7-----7/8-----7--7-7-----10\8-----|
B |--5---5-5-5-5-5-5-5-5-5-5-3-5-3-5~---5-5--0--5/6--0--5--5-5--0---8\6--0--|
p.m.     . . . . . . . . . .                 .       .          .        .

B |-------------------------------------------------------------------------|
F#|-------------------------------------------------------------------------|
D |-------------------------------------------------------------------------|
A |-------------------------------------------------------------------------|
E |--8----------------------------------8-8-----8/10----8--8-8-----12\10----|
B |--6---6-6-6-6-6-6-6-6-6-6-5-6-5-6~---6-6--0--6/8--0--6--6-6--0--10\8--0--|
p.m.     . . . . . . . . . .                 .       .          .        .

B |-------------------------------------------------------------------------|
F#|-------------------------------------------------------------------------|
D |-------------------------------------------------------------------------|
A |-------------------------------------------------------------------------|
E |--7----------------------------------7-7-----7/8-----7--7-7-----10\8-----|
B |--5---5-5-5-5-5-5-5-5-5-5-3-5-3-5~---5-5--0--5/6--0--5--5-5--0---8\6--0--|
p.m.     . . . . . . . . . .                 .       .          .        .
".. leave a trails for me to find..."

B |---------------------------------------------------------------------------|
F#|---------------------------------------------------------------------------|
D |---------------------------------------------------------------------------|
A |--7---------7----------------------------------9\--------------------------|
E |--5----7----5----7-7-7-7-7-7-7-7-7-7-7-7-7-7-7-7\--------------------------|
B |-------5-------------------------------------------------------------------|
p.m.                . . . . . . . . . . . . . . .

[Chorus]
B |-----------------------------------|---------------------------------|
F#|-----------------------------------|---------------------------------|
D |-----------------------------------|---------------------------------|
A |--\7-7-7-7-7-7-7-7-7-7-7-7-7-7-7-7-|-5-5-5-5-5-5-5-5-5-5-5-5-5-5-5-5-|
E |--\7-7-7-7-7-7-7-7-7-7-7-7-7-7-7-7-|-5-5-5-5-5-5-5-5-5-5-5-5-5-5-5-5-|
B |--\5-5-5-5-5-5-5-5-5-5-5-5-5-5-5-5-|-3-3-3-3-3-3-3-3-3-3-3-3-3-3-3-3-|

B |----------------------------------|---------------------------------|
F#|----------------------------------|---------------------------------|
D |----------------------------------|---------------------------------|
A |--2-2-2-2-2-2-2-2-2-2-2-2-2-2-2-2-|-3-----3-----3---5-----5------\--|
E |--2-2-2-2-2-2-2-2-2-2-2-2-2-2-2-2-|-3-----3-----3---5-----5------\--|
B |--0-0-0-0-0-0-0-0-0-0-0-0-0-0-0-0-|-1-1-1-1-1-1-1-1-3-3-3-3-3-3--\--|
p.m.                                     . .   . .   .   . .   . .

B |-----------------------------------|---------------------------------|
F#|-----------------------------------|---------------------------------|
D |-----------------------------------|---------------------------------|
A |--\7-7-7-7-7-7-7-7-7-7-7-7-7-7-7-7-|-5-5-5-5-5-5-5-5-5-5-5-5-5-5-5-5-|
E |--\7-7-7-7-7-7-7-7-7-7-7-7-7-7-7-7-|-5-5-5-5-5-5-5-5-5-5-5-5-5-5-5-5-|
B |--\5-5-5-5-5-5-5-5-5-5-5-5-5-5-5-5-|-3-3-3-3-3-3-3-3-3-3-3-3-3-3-3-3-|

B |----------------------------------|---------------------------------|
F#|----------------------------------|---------------------------------|
D |----------------------------------|---------------------------------|
A |--2-2-2-2-2-2-2-2-2-2-2-2-2-2-2-2-|-3-----3-----3---5-----5------\--|
E |--2-2-2-2-2-2-2-2-2-2-2-2-2-2-2-2-|-3-----3-----3---5-----5------\--|
B |--0-0-0-0-0-0-0-0-0-0-0-0-0-0-0-0-|-1-1-1-1-1-1-1-1-3-3-3-3-3-3--\--|
p.m.                                     . .   . .   .   . .   . .
"off the world..." 

B |--------------------------------------------------------------------------------------------------|
F#|--------------------------------------------------------------------------------------------------|
D |--------------------------------------------------------------------------------------------------|
A |--------------------------------------------------------------------------------------------------|
E |--5-5-5-5-5-5-5-5-7-7-7-7-7-7-7-7-----------------5-5-5-5-5-5-5-5-7-7-7-7-7-7-7-7-----------------|
B |----------------------------------5-5-5-5-5-5-5-5---------------------------------5-5-5-5-5-5-5-5-|
p.m. . . . . . . . . . . . . . . . . . . . . . . . . . . . . . . . . . . . . . . . . . . . . . . . . 

B |--------------------------------------------------|
F#|--------------------------------------------------|
D |--------------------------------------------------|
A |--------------------------------------------------|
E |--5-5-5-5-5-5-5-5-7-7-7-7-7-7-7-7-----------------|
B |----------------------------------5-5-5-5-5-5-5-5-| 
p.m. . . . . . . . . . . . . . . . . . . . . . . . . 
"Running to the edge..."

B |--------------------------------|
F#|--------------------------------|
D |--7----9------------------------|
A |--7----9------------------------|
E |--5----7-----7-7---8---5--7-7\--|
B |-------------5-5-0-6-0-3--5-5\--|
p.m.                .   .

[Verse 2]
B |-------------------------------------------------------------------------|
F#|-------------------------------------------------------------------------|
D |-------------------------------------------------------------------------|
A |-------------------------------------------------------------------------|
E |--7----------------------------------7-7-----7/8-----7--7-7-----10\8-----|
B |--5---5-5-5-5-5-5-5-5-5-5-3-5-3-5~---5-5--0--5/6--0--5--5-5--0---8\6--0--|
p.m.     . . . . . . . . . .                 .       .          .        .

B |-------------------------------------------------------------------------|
F#|-------------------------------------------------------------------------|
D |-------------------------------------------------------------------------|
A |-------------------------------------------------------------------------|
E |--7----------------------------------7-7-----7/8-----7--7-7-----10\8-----|
B |--5---5-5-5-5-5-5-5-5-5-5-3-5-3-5~---5-5--0--5/6--0--5--5-5--0---8\6--0--|
p.m.     . . . . . . . . . .                 .       .          .        .

B |-------------------------------------------------------------------------|
F#|-------------------------------------------------------------------------|
D |-------------------------------------------------------------------------|
A |-------------------------------------------------------------------------|
E |--8----------------------------------8-8-----8/10----8--8-8-----12\10----|
B |--6---6-6-6-6-6-6-6-6-6-6-5-6-5-6~---6-6--0--6/8--0--6--6-6--0--10\8--0--|
p.m.     . . . . . . . . . .                 .       .          .        .

B |-------------------------------------------------------------------------|
F#|-------------------------------------------------------------------------|
D |-------------------------------------------------------------------------|
A |-------------------------------------------------------------------------|
E |--7----------------------------------7-7-----7/8-----7--7-7-----10\8-----|
B |--5---5-5-5-5-5-5-5-5-5-5-3-5-3-5~---5-5--0--5/6--0--5--5-5--0---8\6--0--|
p.m.     . . . . . . . . . .                 .       .          .        .

".. leave a sign for me to find..."

B |---------------------------------------------------------------------------|
F#|---------------------------------------------------------------------------|
D |---------------------------------------------------------------------------|
A |--7---------7----------------------------------9\--------------------------|
E |--5----7----5----7-7-7-7-7-7-7-7-7-7-7-7-7-7-7-7\--------------------------|
B |-------5-------------------------------------------------------------------|
p.m.                . . . . . . . . . . . . . . .

[Chorus 2]
B |-----------------------------------|---------------------------------|
F#|-----------------------------------|---------------------------------|
D |-----------------------------------|---------------------------------|
A |--\7-7-7-7-7-7-7-7-7-7-7-7-7-7-7-7-|-5-5-5-5-5-5-5-5-5-5-5-5-5-5-5-5-|
E |--\7-7-7-7-7-7-7-7-7-7-7-7-7-7-7-7-|-5-5-5-5-5-5-5-5-5-5-5-5-5-5-5-5-|
B |--\5-5-5-5-5-5-5-5-5-5-5-5-5-5-5-5-|-3-3-3-3-3-3-3-3-3-3-3-3-3-3-3-3-|

B |----------------------------------|---------------------------------|
F#|----------------------------------|---------------------------------|
D |----------------------------------|---------------------------------|
A |--2-2-2-2-2-2-2-2-2-2-2-2-2-2-2-2-|-3-----3-----3---5-----5------\--|
E |--2-2-2-2-2-2-2-2-2-2-2-2-2-2-2-2-|-3-----3-----3---5-----5------\--|
B |--0-0-0-0-0-0-0-0-0-0-0-0-0-0-0-0-|-1-1-1-1-1-1-1-1-3-3-3-3-3-3--\--|
p.m.                                     . .   . .   .   . .   . .

B |-----------------------------------|---------------------------------|
F#|-----------------------------------|---------------------------------|
D |-----------------------------------|---------------------------------|
A |--\7-7-7-7-7-7-7-7-7-7-7-7-7-7-7-7-|-5-5-5-5-5-5-5-5-5-5-5-5-5-5-5-5-|
E |--\7-7-7-7-7-7-7-7-7-7-7-7-7-7-7-7-|-5-5-5-5-5-5-5-5-5-5-5-5-5-5-5-5-|
B |--\5-5-5-5-5-5-5-5-5-5-5-5-5-5-5-5-|-3-3-3-3-3-3-3-3-3-3-3-3-3-3-3-3-|

B |----------------------------------|---------------------------------|
F#|----------------------------------|---------------------------------|
D |----------------------------------|---------------------------------|
A |--2-2-2-2-2-2-2-2-2-2-2-2-2-2-2-2-|-3-----3-----3---5-----5------\--|
E |--2-2-2-2-2-2-2-2-2-2-2-2-2-2-2-2-|-3-----3-----3---5-----5------\--|
B |--0-0-0-0-0-0-0-0-0-0-0-0-0-0-0-0-|-1-1-1-1-1-1-1-1-3-3-3-3-3-3--\--|
p.m.                                     . .   . .   .   . .   . .

"off the world..." 
B |--------------------------------------------------------------------------------------------------|
F#|--------------------------------------------------------------------------------------------------|
D |--------------------------------------------------------------------------------------------------|
A |--------------------------------------------------------------------------------------------------|
E |--5-5-5-5-5-5-5-5-7-7-7-7-7-7-7-7-----------------5-5-5-5-5-5-5-5-7-7-7-7-7-7-7-7-----------------|
B |----------------------------------5-5-5-5-5-5-5-5---------------------------------5-5-5-5-5-5-5-5-|
p.m. . . . . . . . . . . . . . . . . . . . . . . . . . . . . . . . . . . . . . . . . . . . . . . . . 

B |--------------------------------------------------|
F#|--------------------------------------------------|
D |--------------------------------------------------|
A |--------------------------------------------------|
E |--5-5-5-5-5-5-5-5-7-7-7-7-7-7-7-7-----------------|
B |----------------------------------5-5-5-5-5-5-5-5-| 
p.m. . . . . . . . . . . . . . . . . . . . . . . . . 

"Running to the edge..."
B |--------------------------------|
F#|--------------------------------|
D |--7----9------------------------|
A |--7----9------------------------|
E |--5----7-----7------------------|
B |-------------5------------------|

[break]
B |------------------------------------------------------------------------------|
F#|------------------------------------------------------------------------------|
D |------------------------------------------------------------------------------|
A |------------------------------------------------------------------------------|
E |--7-7-----7/8-----7--7-7-----10\8-----7--7-7-----7/8-----7--7-7-----8/12-13~--|
B |--5-5--0--5/6--0--5--5-5--0---8\6--0--5--5-5--0--5/6--0--5--5-5--0--6/10-11~--|
p.m.      .       .          .        .          .       .          .

[solo]
B |-----------------------------------|---------------------------------|
F#|-----------------------------------|---------------------------------|
D |-----------------------------------|---------------------------------|
A |--\7-7-7-7-7-7-7-7-7-7-7-7-7-7-7-7-|-5-5-5-5-5-5-5-5-5-5-5-5-5-5-5-5-|
E |--\7-7-7-7-7-7-7-7-7-7-7-7-7-7-7-7-|-5-5-5-5-5-5-5-5-5-5-5-5-5-5-5-5-|
B |--\5-5-5-5-5-5-5-5-5-5-5-5-5-5-5-5-|-3-3-3-3-3-3-3-3-3-3-3-3-3-3-3-3-|

B |----------------------------------|---------------------------------|
F#|----------------------------------|---------------------------------|
D |----------------------------------|---------------------------------|
A |--2-2-2-2-2-2-2-2-2-2-2-2-2-2-2-2-|-3-----3-----3---5-----5------\--|
E |--2-2-2-2-2-2-2-2-2-2-2-2-2-2-2-2-|-3-----3-----3---5-----5------\--|
B |--0-0-0-0-0-0-0-0-0-0-0-0-0-0-0-0-|-1-1-1-1-1-1-1-1-3-3-3-3-3-3--\--|
p.m.                                     . .   . .   .   . .   . .

B |-----------------------------------|---------------------------------|
F#|-----------------------------------|---------------------------------|
D |-----------------------------------|---------------------------------|
A |--\7-7-7-7-7-7-7-7-7-7-7-7-7-7-7-7-|-5-5-5-5-5-5-5-5-5-5-5-5-5-5-5-5-|
E |--\7-7-7-7-7-7-7-7-7-7-7-7-7-7-7-7-|-5-5-5-5-5-5-5-5-5-5-5-5-5-5-5-5-|
B |--\5-5-5-5-5-5-5-5-5-5-5-5-5-5-5-5-|-3-3-3-3-3-3-3-3-3-3-3-3-3-3-3-3-|

B |----------------------------------|---------------------------------|
F#|----------------------------------|---------------------------------|
D |----------------------------------|---------------------------------|
A |--2-2-2-2-2-2-2-2-2-2-2-2-2-2-2-2-|-3-----3-----3---5-----5------\--|
E |--2-2-2-2-2-2-2-2-2-2-2-2-2-2-2-2-|-3-----3-----3---5-----5------\--|
B |--0-0-0-0-0-0-0-0-0-0-0-0-0-0-0-0-|-1-1-1-1-1-1-1-1-3-3-3-3-3-3--\--|
p.m.                                     . .   . .   .   . .   . .

B |--------------------------------------------------------------------------------------------------|
F#|--------------------------------------------------------------------------------------------------|
D |--------------------------------------------------------------------------------------------------|
A |--------------------------------------------------------------------------------------------------|
E |--5-5-5-5-5-5-5-5-7-7-7-7-7-7-7-7-----------------5-5-5-5-5-5-5-5-7-7-7-7-7-7-7-7-----------------|
B |----------------------------------5-5-5-5-5-5-5-5---------------------------------5-5-5-5-5-5-5-5-|
p.m. . . . . . . . . . . . . . . . . . . . . . . . . . . . . . . . . . . . . . . . . . . . . . . . . 

B |--------------------------------------------------|
F#|--------------------------------------------------|
D |--------------------------------------------------|
A |--------------------------------------------------|
E |--5-5-5-5-5-5-5-5-7-7-7-7-7-7-7-7-----------------|
B |----------------------------------5-5-5-5-5-5-5-5-| 
p.m. . . . . . . . . . . . . . . . . . . . . . . . . 

B |--------------------------------|
F#|--------------------------------|
D |--7----9------------------------|
A |--7----9------------------------|
E |--5----7-----7-7---8---5--7-7\--|
B |-------------5-5-0-6-0-3--5-5\--|
p.m.                .   .

[Outro]
"I am running, running..."
B |-----------------------------------|---------------------------------|
F#|-----------------------------------|---------------------------------|
D |-----------------------------------|---------------------------------|
A |-----------------------------------|-5-5-5-5-5-5-5-5-5-5-5-5-5-5-5-5-|
E |-----------------------------------|-5-5-5-5-5-5-5-5-5-5-5-5-5-5-5-5-|
B |-----------------------------------|-3-3-3-3-3-3-3-3-3-3-3-3-3-3-3-3-|

B |----------------------------------|---------------------------------|
F#|----------------------------------|---------------------------------|
D |----------------------------------|---------------------------------|
A |--2-2-2-2-2-2-2-2-2-2-2-2-2-2-2-2-|-3-----3-----3---5-----5------\--|
E |--2-2-2-2-2-2-2-2-2-2-2-2-2-2-2-2-|-3-----3-----3---5-----5------\--|
B |--0-0-0-0-0-0-0-0-0-0-0-0-0-0-0-0-|-1-1-1-1-1-1-1-1-3-3-3-3-3-3--\--|
p.m.                                     . .   . .   .   . .   . .

B |-----------------------------------|---------------------------------|
F#|-----------------------------------|---------------------------------|
D |-----------------------------------|---------------------------------|
A |--\7-7-7-7-7-7-7-7-7-7-7-7-7-7-7-7-|-5-5-5-5-5-5-5-5-5-5-5-5-5-5-5-5-|
E |--\7-7-7-7-7-7-7-7-7-7-7-7-7-7-7-7-|-5-5-5-5-5-5-5-5-5-5-5-5-5-5-5-5-|
B |--\5-5-5-5-5-5-5-5-5-5-5-5-5-5-5-5-|-3-3-3-3-3-3-3-3-3-3-3-3-3-3-3-3-|

B |----------------------------------|---------------------------------|
F#|----------------------------------|---------------------------------|
D |----------------------------------|---------------------------------|
A |--2-2-2-2-2-2-2-2-2-2-2-2-2-2-2-2-|-3-----3-----3---5-----5------\--|
E |--2-2-2-2-2-2-2-2-2-2-2-2-2-2-2-2-|-3-----3-----3---5-----5------\--|
B |--0-0-0-0-0-0-0-0-0-0-0-0-0-0-0-0-|-1-1-1-1-1-1-1-1-3-3-3-3-3-3--\--|
p.m.                                     . .   . .   .   . .   . .

"off the world..."
B |--------------------------------------------------------------------------------------------------|
F#|--------------------------------------------------------------------------------------------------|
D |--------------------------------------------------------------------------------------------------|
A |--------------------------------------------------------------------------------------------------|
E |--5-5-5-5-5-5-5-5-7-7-7-7-7-7-7-7-----------------5-5-5-5-5-5-5-5-7-7-7-7-7-7-7-7-----------------|
B |----------------------------------5-5-5-5-5-5-5-5---------------------------------5-5-5-5-5-5-5-5-|
p.m. . . . . . . . . . . . . . . . . . . . . . . . . . . . . . . . . . . . . . . . . . . . . . . . . 

B |--------------------------------------------------|
F#|--------------------------------------------------|
D |--------------------------------------------------|
A |--------------------------------------------------|
E |--5-5-5-5-5-5-5-5-7-7-7-7-7-7-7-7-----------------|
B |----------------------------------5-5-5-5-5-5-5-5-| 
p.m. . . . . . . . . . . . . . . . . . . . . . . . . 

"Running to the edge..."
B |-------------------------------------------------------------|
F#|-------------------------------------------------------------|
D |--7----9-----------------------------------------------------|
A |--7----9-----------------------------------------------------|
E |--5----7-----7-7---8---5--7-7-7---5-6~----7-7---8---5--7-7\--|
B |-------------5-5-0-6-0-3--5-5-5-0---------5-5-0-6-0-3--5-5\--|
p.m.                .   .          .             .   .


************************************

| h     Hammer-on
| p     Pull-off
| /     Slide up
| \     Slide down
| ~     Vibrato
| p.m.  Palm mute

************************************
Suggest correction
Creating personal tab
Creating personal tab
You can edit any tab online and save it as your Personal.

You can edit, replace or remove any tab part or add personal notes – all changes will be seen only by you.

Personal tabs can be accessed anytime from any device, even offline.
Learn more »
Give kudos to tab author, rate the tab!
1 2 3 4 5
comments
print report bad tab
guest
You may want to rate the tab now too:
select rating
Wanna post a correction for this tab? Suggest correction