Oops, an error
Loading. Please wait.

We Will Fall To Rise Again tab

25 views 1 this week
no commentswrite comment
1 2 3 4 5
3 more votes to show rating
add to favorites
×
Save as Personal and add changes to this tab that will be seen only by you. Learn more ›
×
You can save this tab as Personal to edit and correct it or add notes. All changes will be seen only by you. Learn more »
launch autoscroll
font size
0
reset
how to read this tab
guitar tuner
edit
Autoscroll
slow
fast
+/-
esc
set tempo
stop
My Youtube: https://www.youtube.com/user/DarkLizard13

these are my first tabs, so they may be a little messy and hard to read/understand.
i tried the best that i could. this tab is unfinished and some of the tabs may be incorrect
i will probably finish the tabs eventually. its just long to type. XD hope it helps

Tuning = Drop B
Other Tunings = Drop A#

[Intro]

 B|8p0-0-7-0-8-0-2-0-2h3-0-12p0-000--8p0-0-7-0-8-0-2-0-2h3-0---8-7-5-|
F#|----------------------------------------------------------5-------|
 B|------------------------------------------------------------------|
 E|------------------------------------------------------------------|
G#|------------------------------------------------------------------|
C#|------------------------------------------------------------------|

 B|8p0-0-7-0-8-0-2-0-2h3-0-12p0-000--8p0-0-7-0-8-0-2-0-2h3-0---8-7-5-|
F#|----------------------------------------------------------5-------|
 B|------------------------------------------------------------------|
 E|------------------------------------------------------------------|
G#|------------------------------------------------------------------|
C#|------------------------------------------------------------------|

 B|-0~~~~8~~~~8-000---7h8-2-0-0-3-0-0-2h3-8-000---7h8-0-------10-8-7-3-2| x2 ]
F#|-0~~~~8~~~~------------------------------------------7h8p7-----------|
 B|-0~~~~8~~~~----------------------------------------------------------|
 E|---------------------------------------------------------------------|
G#|---------------------------------------------------------------------|
C#|---------------------------------------------------------------------|

 B|8-000~~~7h8-2-0-0-3-0-0-2h3-8-000~~~7h8-0-------10-8-7-3-2| x2
F#|------------------------------------------7h8p7-----------|
 B|----------------------------------------------------------|
 E|----------------------------------------------------------|
G#|----------------------------------------------------------|
C#|----------------------------------------------------------|


[Verse]

 B|--0-0---0---0---8------------8-7---7-7---7---7---5-----------8-7| x2 ]
F#|5-----8---7---8---------8-7-5----4-----5---5---7-------8-7-5----|
 B|------------------5h7p5----------------------------7-5----------|
 E|----------------------------------------------------------------|
G#|----------------------------------------------------------------|
C#|----------------------------------------------------------------|

 B|0---0-0-0-0-0-0-xxxxxxxxxxxx-8---8-8-8-8-8-8-8-xxxxxxxxxxxxxxxxxxx| x2]
F#|0---0-0-0-0-0-0-5-5-5-5-8-8--8---8-8-8-8-8-8-8-10-10-10-10-7-7-7-7|
 B|0---0-0-0-0-0-0-xxxxxxxxxxxx-8---8-8-8-8-8-8-8-xxxxxxxxxxxxxxxxxxx|
 E|----------------7-7-7-7-9-9--------------------12-12-12-12-9-9-9-9|
G#|------------------------------------------------------------------|
C#|------------------------------------------------------------------|


[Pre-Chorus/Breakdown]
 
 B|0~~~~~~~~~~~~~~~~0-000-0-0-0---000---0-0-0---0-000-0-0-0---000------| x4
F#|0~~~~~~~~~~~~~~~~0-000-0-0-0---000---0-0-0---0-000-0-0-0---000-8-8-8|
 B|0~~~~~~~~~~~~~~~~0-------------------0-------0-------------000-7-7-7|
 E|--------------------------------------------------------------------|
G#|--------------------------------------------------------------------|
C#|--------------------------------------------------------------------|


[Chorus tapping]

 B|---------------------------------------------------------------------------------------------|
F#|---------------------------------------------------------------------------------------------|
 B|7p5-h7p5-p0-h5-t10-p5-t10-p5-p0-h3-h5-p3-h5-p3-7p5-h7p5-p0-h5-t10-p5-t10-p5-p0-h3-h5-p0-h5-p0|
 E|---------------------------------------------------------------------------------------------|
G#|---------------------------------------------------------------------------------------------|
C#|---------------------------------------------------------------------------------------------|



************************************

| x  Dead note
| h  Hammer-on
| p  Pull-off
| t  Tapping
| ~  Vibrato 

************************************
Suggest correction
Creating personal tab
Creating personal tab
You can edit any tab online and save it as your Personal.

You can edit, replace or remove any tab part or add personal notes – all changes will be seen only by you.

Personal tabs can be accessed anytime from any device, even offline.
Learn more »
Give kudos to tab author, rate the tab!
1 2 3 4 5
comments
print report bad tab
guest
You may want to rate the tab now too:
select rating
Wanna post a correction for this tab? Suggest correction