Oops, an error
Loading. Please wait.

Jaurai Cent Ans chords

by Beyries
2,518 views 36 this week
no commentswrite comment
1 2 3 4 5
x 5
add to favorites
×
Save as Personal and add changes to this tab that will be seen only by you. Learn more ›
×
You can save this tab as Personal to edit and correct it or add notes. All changes will be seen only by you. Learn more »
launch autoscroll
font size
0
reset
transpose
0
reset
simplify chords
display chords
guitar tuner
edit
Autoscroll
slow
fast
+/-
esc
set tempo
stop
About this tab version
Capo 4 for the studio version, capo 5 for the live version. Some lyrics and chords may not be 100% accurate. Was this info helpful? Yes No
Strumming
There is no strumming pattern for this song yet. and get +5 IQ
J'aurai cent ans - Beyries (avec Louis-Jean Cormier)
                     
[Verse]
     E     Am6/C    C#m    E7/D      A       Am   Fmaj7/A  Gadd4     G       F      G7     C#m7
e|---0---|---0---|---4---|---0---|---0---|---0---|---0---|---3---|---3---|---1---|---1---|---4---|
B|---0---|---0---|---5---|---0---|---2---|---1---|---1---|---1---|---0---|---1---|---0---|---5---|
G|---1---|---2---|---6---|---4---|---2---|---2---|---2---|---0---|---0---|---2---|---0---|---4---|
D|---2---|---4---|---6---|---6---|---2---|---2---|---3---|---0---|---0---|---3---|---0---|---6---|
A|---2---|---3---|---4---|---5---|---0---|---0---|---0---|---2---|---2---|---3---|---2---|---4---|
E|---0---|-------|-------|-------|-------|-------|-------|---3---|---3---|---1---|---3---|-------|

[Chorus]                                           
    Am  Fmaj7/A  D9/F#   Gadd4    G   Dadd4/A   F
e|--0--|---0---|---0---|---3---|--3--|---0---|--0--|
B|--1--|---1---|---1---|---1---|--0--|---3---|--1--|
G|--2--|---2---|---2---|---0---|--0--|---0---|--2--|
D|--2--|---3---|---0---|---0---|--0--|---4---|--3--|
A|--0--|---0---|---0---|---2---|--2--|---5---|--3--|
E|-----|-------|---2---|---3---|--3--|---5---|--1--|

[Bridge]                                          
     Dm     Em    Amadd9   D#dim7    E      E7     E7b13
e|---5---|---0---|---0---|-------|---0---|---0---|---0---|
B|---6---|---0---|---0---|---7---|---0---|---0---|---0---|
G|---7---|---0---|---5---|---5---|---1---|---1---|---1---|
D|---7---|---5---|---7---|---7---|---2---|---0---|---0---|
A|---5---|---7---|---0---|---6---|---2---|---2---|---3---|
E|-------|-------|-------|-------|---0---|---0---|---0---|

[Verse 1]
                   E
   J’aurai cent ans
Am6/C              E
   Toi un peu moins
Am6/C                      C#m  
   Je m’allongerai au chaud
C#m                           E7/D
   Dans le creux de tes cernes
      E7/D                A
   Comme un retour au berceau
       A                    Am
   Comme pour mon dernier repos

                      E  
   Je colmaterai l’hiver
Am6/C            E                        
   De mon rire le plus doux
Am6/C           C#m            
   Je compterai tes rides
C#m                       E7/D                                                   
   Aux commissures des paupières

E7/D                   Am
   Je relirai tes rides
                  Fmaj7/A               Gadd4   G
   Autant de souvenirs qui ne sont qu’à nous
      E              F
   Même si tu les oublies

[Chorus]
   Am            Fmaj7/A
   Même, si tu oublies
              D9/F#   Gadd4   G   Gadd4
   Que tu t’oublies
   Am            Dadd4/A
   Même, si tu oublies
               F
   Que tu m’oublies

[Verse 2]
                     E
   Mais j’ai trente ans
Am6/C            E
   Toi un peu moins
Am6/C                   C#m
   Je comprends mal les mots
C#m7                  E7/D
   Que tu veux que je cerne
      E7/D                  A
   Comme un cowboy son troupeau
       A               Am
   Comme un homme son égo

                          E
   J’ai honte, c’est la guerre
Am6/C                  E
   Le cachemire entre nous
Am6/C               C#m          
   Au comble, c’est torride
C#m7                    E7/D
   Mais les blessures meurtrières
E7/D                Am
   Arrosons, c'est aride
                  Fmaj7/A              G7   G
   Je veux cet avenir qui ne sera qu’à nous
   E                   F
   Aime-toi, je t’en supplie

[Bridge]
Dm   Em   Amadd9   D#dim7   E   E7
Dm   Em   Amadd9   D#dim7   E   E7   E7b13   E7

[Chorus]
   Am            Fmaj7/A
   Même, si tu oublies
              D9/F#   Gadd4   G   Gadd4
   Que tu t’oublies
   Am            Dadd4/A
   Même, si tu oublies
               F
   Que tu m’oublies
   Am            Fmaj7/A
   Même, si tu oublies
              D9/F#   Gadd4   G
   Que tu t’oublies
   Am            Dadd4/A
   Même, si tu oublies
               F
   Que tu m’oublies

            
            
Suggest correction
Creating personal tab
Creating personal tab
You can edit any tab online and save it as your Personal.

You can edit, replace or remove any tab part or add personal notes – all changes will be seen only by you.

Personal tabs can be accessed anytime from any device, even offline.
Learn more »
comments
print report bad tab
guest
You may want to rate the tab now too:
select rating
Wanna post a correction for this tab? Suggest correction