Oops, an error
Loading. Please wait.
We have Chord Pro version of Sway.
It's the closest thing you can get to the original song and it has interactive parts. Check out the tab »
×
286 views 15 this week
2 commentsread comments
1 2 3 4 5
x 3
add to favorites
×
Save as Personal and add changes to this tab that will be seen only by you. Learn more ›
×
You can save this tab as Personal to edit and correct it or add notes. All changes will be seen only by you. Learn more »
launch autoscroll
font size
0
reset
guitar tuner
edit
Autoscroll
slow
fast
+/-
esc
set tempo
stop
-------------------------------------------------------------------------------
                             Sway - Bic Runga
-------------------------------------------------------------------------------

Tabbed by: Januel Van Christian 
E-mail: januelvanchristian@yahoo.com/gmail.com

Tuning: Standard 

Intro :
   D        D      E       E       ( 2x )     ---- chords Pattern
G|-------------------------------------------|
D|-------------------------------------------|
A|-5-5-5-5-5-5-5-5-7-7-7-7-7-7-7-7-----------| ( 2x )
E|-------------------------------------------|

Verse :
   A       A       C#      C#      D        D      D       D
G|---------------------------------------------------------------------------|
D|---------------------------------------------------------------------------|
A|-0-0-0-0-0-0-0-0-4-4-4-4-4-4-4-4-5-5-5-5-5-5-5-5-5-5-5-5-5-5-5-5-----------|
E|---------------------------------------------------------------------------|
   A       A       C#      C#      D        D      E        E
G|---------------------------------------------------------------------------|
D|---------------------------------------------------------------------------|
A|-0-0-0-0-0-0-0-0-4-4-4-4-4-4-4-4-5-5-5-5-5-5-5-5-7-7-7-7-7-7-7-------------|
E|---------------------------------------------------------------7\----------|

Refrain :
   F#      F#     C#      C#      D        D      E      E 
G|---------------------------------------------------------------------------|
D|---------------------------------------------------------------------------|
A|-----------------4-4-4-4-4-4-4-4-5-5-5-5-5-5-5-5-7-7-7-7-7-5-4-------------|
E|-2-2-2-2-2-2-2-2/---------------------------------------------7------------|

                       ---- Back to Verse -----
                       
Chorus :
   A       A       E        E      F#      F#     C#      E      ( 2x )
G|---------------------------------------------------------------------------|
D|---------------------------------------------------------------------------|
A|------------------------------------------------4-4-4-4-7-7-4--------------|  ( 2x )
E|-5-5-5-5-5-5-5-7-0-0-0-0-0-0-0-0-2-2-2-2-2-2-2-2-------------7-------------|

        Repeat :
               Verse,
               Refrain,
               Chorus 2x, 
               then do the intro .

Instrumental :
   A      A        C#       C#     D       D       E    
G|---------------------------------------------------------------------------|
D|---------------------------------------------------------------------------|
A|-0-0-0-0-0-0-0-0-4-4-4-4-4-4-4-4-5-5-5-5-5-5-5-5-7-------------------------|
E|---------------------------------------------------------------------------|

       Repeat :
               Refrain 2x , Chorus 2x , extro same as intro 
Extro :
   D      D         E        E (2x)   E D C# B A
G|----------------------------------|--------------|
D|----------------------------------|--------------|
A|-5-5-5-5-5-5-5-5-7-7-7-7-7-7-7-7--|-7-5-4-2-0----|
E|----------------------------------|--------------|


| Chords at the top are the patterns only :)
| /  slide up
| \  slide down
| h  hammer-on
| p  pull-off
| ~  vibrato
| +  harmonic
| x  Mute note
===============================================================================

Hi there :) please rate my work and leave a comment :) 
I hope you like it :)

Suggest correction
Creating personal tab
Creating personal tab
You can edit any tab online and save it as your Personal.

You can edit, replace or remove any tab part or add personal notes – all changes will be seen only by you.

Personal tabs can be accessed anytime from any device, even offline.
Learn more »
Give kudos to tab author, rate the tab!
1 2 3 4 5
comments
print report bad tab
2 comments total.
0 reply
alicanteshamm 12 Dec 27, 2015 11:17 PM

your tab is so amazing !!! thank you for this :)

0 reply
tinhdovan15274745 10 Dec 30, 2015 09:16 PM

it so easy thanks :)

guest
You may want to rate the tab now too:
select rating
Wanna post a correction for this tab? Suggest correction