Oops, an error
Loading. Please wait.

27 Bass Tab

version 2
version 2

Whole song

Interactive

2,895 views 1 this week
no commentswrite comment
1 2 3 4 5
excellent!
x 5
add to favorites
launch autoscroll
font size
0
reset
guitar tuner
Autoscroll
slow
fast
+/-
esc
set tempo
stop
Help us to improve Ultimate-Guitar.com Take our survey!
×
Contributor
Difficulty
Tuning
novice
D A D G B E
Song: 27
Artist: Biffy Clyro
Album: Blackened Sky

Tuning:Drop D


INTRO
(Nothing played)

VERSE 1
(Nothing played)

CHORUS 1
(Nothing played)


INSTRUMENTAL 1
G|-----------------------------------|
D|-----------------------------------|
A|-----------------------------------|
D|--5-5-5-5-5-5-5-5-0-0-0-0-0-0-0-0--|x2


VERSE 2
G|-----------------------------------|
D|-----------------------------------|
A|-----------------------------------|
D|--5-5-5-5-5-5-5-5-0-0-0-0-0-0-0-0--|x4


CHORUS 2
G|-------------------------------------------|
D|-------------------------------------------|
A|-------------------------------------------|
D|--9-9-9-9-9-9-9-9-11-11-11-11-11-11-11-11--|

G|-----------------------------------|
D|-----------------------------------|
A|-----------------------------------|
D|--0-0-0-0-0-0-0-0-0-0-0-0-0-0-0-0--|

G|-------------------------------------------|
D|-------------------------------------------|
A|-------------------------------------------|
D|--9-9-9-9-9-9-9-9-11-11-11-11-11-11-11-11--|

G|------------------------------------------------------|
D|------------------------------------------------------|
A|--------------------------------------------------4~--|
D|--0-0-0-0-0-0-0-0-7-7-7-7-5-5-5-5-0-0-0-0-0-0-0-0-----|


INSTRUMENTAL 2
G|-----------------------------------|
D|-----------------------------------|
A|-----------------------------------|
D|--5-5-5-5-5-5-5-5-0-0-0-0-0-0-0-0--|x2


VERSE 3
G|-----------------------------------|
D|-----------------------------------|
A|-----------------------------------|
D|--5-5-5-5-5-5-5-5-0-0-0-0-0-0-0-0--|x4


CHORUS 3
G|-------------------------------------------|
D|-------------------------------------------|
A|-------------------------------------------|
D|--9-9-9-9-9-9-9-9-11-11-11-11-11-11-11-11--|

G|-----------------------------------|
D|-----------------------------------|
A|-----------------------------------|
D|--0-0-0-0-0-0-0-0-0-0-0-0-0-0-0-0--|

G|-------------------------------------------|
D|-------------------------------------------|
A|-------------------------------------------|
D|--9-9-9-9-9-9-9-9-11-11-11-11-11-11-11-11--|

G|-------------------------------------------------------------------|
D|-------------------------------------------------------------------|
A|-------------------------------------------------------------------|
D|--0-0-0-0-0-0-0-0-7-7-7-7-5-5-5-5-0-0-0-0-0-0-0-0-7-7-7-7-5-5-5-5--|

G|-------------------------------------------------------------------|
D|-------------------------------------------------------------------|
A|-------------------------------------------------------------------|
D|--0-0-0-0-0-0-0-0-7-7-7-7-5-5-5-5-0-0-0-0-0-0-0-0-7-7-7-7-5-5-5-5--|


OUTRO
G|--------------------------------------------------|
D|--------------------------------------------------|
A|--------------------------------------------------|
D|--0~-------------5-5-5-5-5-5-5-5-0-0-0-0-0-0-0-0--|

G|-----------------------------------------------------------------|
D|-----------------------------------------------------------------|
A|-----------------------------------------------------------------|
D|--5-5-5-5-5-5-5-5-0-0-0-0-0-0-0-0-5-5-5-5-5-5-5-5-0-0-0-0-0-0-0--|

G|--------------------------|
D|--------------------------|
A|--------------------------|
D|--5-5-5-5-5-5-5-5-0~------|
comments
print report bad tab
I want to post or [tab]
guest
You may want to rate the tab now too:
select rating
Please do not post tabs as comments. Select "correction" instead!