Oops, an error
Loading. Please wait.

57 Bass Tab

version 1
version 1

Whole song

Interactive

2,521 views 6 this week
no commentswrite comment
1 2 3 4 5
please rate
add to favorites
launch autoscroll
font size
0
reset
guitar tuner
Tab Pro tools
  • play this tab
  • loop segment
  • change instrument
  • show fretboard
  • metronome
×
Best way to learn
"57"
Autoscroll
slow
fast
+/-
esc
set tempo
stop
Contributor
Difficulty
Tuning
intermediate
D A D G B E
INTRO
G|-----------------------------------|
D|-----------------------------------|
A|-----------------------------------| x3
D|---0------5-5-5-4-4-4-4-x-x-4-4-4--|

G|--------------------------|
D|--------------------------|
A|--------------------------| x1
D|----0------5-5-5-5--------|

VERSE
G|--------------------------------|
D|--------------------------------|
A|------------5-----------------5-| x4
D|---4-----------------4----------|

PRE-CHORUS
                        
G|---------|------------------------------------|
D|---------|------------------------------------| x4
A|--9-8-7-5|-4-4-4-4-5-7-8-9-9-9-9-8-7-5-4-4-4-4|   
D|---------|------------------------------------|
                         Repeat this bit^

G|------------------------------------------------------------------------------|
D|------------------------------------------------------------------------------|
A|--------------------------------------------------------5-5-5-5-5-5-5-7-7-7/9-|
D|---5-5-5-5-7-7-7-7-9-9-9-9-9-9-9-4-4-4-4-5-5-5-5-7-7-7-7----------------------|

G|------------------------------------------------| 
D|------------------------------------------------|
A|------------------------------------------------| 
D|5-5-5-5-7-7-7-7-9-9-9-9-4-4-4-4-5-5-5-5-7-7-7-7-|

CHORUS
G|---------------------------------------------------------------------------|
D|---------------------------------------------------------------------------|
A|---------------------------------------------------------------------------|
D|--0--0-0-0-0-0-0-0--7--7-7-7-7-7-7-7--5--5-5-5-5-5-5-5-5-5-5-5-5-5-5-5-5---|

PRE-CHORUS
                        
G|---------|------------------------------------|
D|---------|------------------------------------| x4
A|--9-8-7-5|-4-4-4-4-5-7-8-9-9-9-9-8-7-5-4-4-4-4|   
D|---------|------------------------------------|
                         Repeat this bit^

G|------------------------------------------------------------------------------|
D|------------------------------------------------------------------------------|
A|--------------------------------------------------------5-5-5-5-5-5-5-7-7-7/9-|
D|---5-5-5-5-7-7-7-7-9-9-9-9-9-9-9-4-4-4-4-5-5-5-5-7-7-7-7----------------------|

G|------------------------------------------------| 
D|------------------------------------------------|
A|------------------------------------------------|
D|5-5-5-5-7-7-7-7-9-9-9-9-4-4-4-4-5-5-5-5-7-7-7-7-|

CHORUS x4
G|---------------------------------------------------------------------------|
D|---------------------------------------------------------------------------|
A|---------------------------------------------------------------------------| 
D|--0--0-0-0-0-0-0-0--7--7-7-7-7-7-7-7--5--5-5-5-5-5-5-5-5-5-5-5-5-5-5-5-5---|

OUTRO
G|---------------------------------------|
D|---------------------------------------|
A|-----9--9--9--9--9--9--9-8-7-5-4-4-4---| x4
D|---------------------------------------|

Thanks to the other two tabbers who are anonymous for giving a good structure for this tab =]

This probably isn't perfect but I think its near as damn it!

comments
We did not receive enough feedback on this tab! Please rate:
print report bad tab
1 2 3 4 5
I want to post or [tab]
guest
You may want to rate the tab now too:
select rating
Please do not post tabs as comments. Select "correction" instead!