Oops, an error
Loading. Please wait.

A Day Of Bass Tab

version 1
version 1

Whole song

Interactive

523 views 1 this week
no commentswrite comment
1 2 3 4 5
please rate
add to favorites
launch autoscroll
font size
0
reset
guitar tuner
Autoscroll
slow
fast
+/-
esc
set tempo
stop
Help us to improve Ultimate-Guitar.com Take our survey!
×
Author
Difficulty
J.J.Jolly 1,261
novice
Biffy Clyro - A Day Of
The Vertigo Of BLiss
D A D G

Verse (0:09)
g|-------------------------------------------------------|
d|-------------------------------------------------------|
a|-------------------------------------------------------|
D|---2-2--------2-2--------2-2---10-10-10-10-12-12-12-12-|

Chorus (0:27)
g|--------------------------------------------------------------------|
d|--------------------------------------------------------------------|
a|-----------------------------------55555555555555552222222223333222-|
D|---22222222222222227777777777777777---------------------------------|

Verse (0:44)
g|-------------------------------------------------------|
d|-------------------------------------------------------|
a|-------------------------------------------------------|
D|---2-2--------2-2--------2-2---10-10-10-10-12-12-12-12-|

Chorus (1:02)
g|--------------------------------------------------------------------|
d|--------------------------------------------------------------------|
a|-----------------------------------55555555555555552222222223333222-|
D|---22222222222222227777777777777777---------------------------------|

Post-Chorus (1:20)
g|------------------------------------------------------------------|
d|------------------------------------------------------------------|
a|------------------------------------------------------------------|
D|---/2--2-2-2--21-/2--2-2-2--21-/2--2-2-2--21-/2--2-2-2--21--------|

g|-------------------------------------------------------------------|
d|-------------------------------------------------------------------|
a|---/3--3-3-3--32-/3--3-3-3--32-/3--3-3-3--32-/3--3-3-3--3-2--------|
D|-------------------------------------------------------------------|

g|----------------------------------------------------------------|
d|----------------------------------------------------------------|
a|---0--0-0-0--0-0--0--0-0-0--0-0--0--0-0-0--0-0--0--0-0-0--0-0---|
D|----------------------------------------------------------------|

g|-------------------------------------------------------------------|
d|-------------------------------------------------------------------|
a|---6-6-6-6-6-6-6-6-6-6-6-6-6-6-6-6-8-8-8-8-8-8-8-8-8-8-8-8-8-8-8-8-|
D|-------------------------------------------------------------------|

Outro (2:09)
g|-------------------------------------------------------|
d|-------------------------------------------------------|
a|-------------------------------------------------------|
D|---2-2--------2-2--------2-2---------2-2--------2-2----|

g|-------------------------------|
d|-------------------------------|
a|-------------------------------|
D|---2-2--------2-2--------2-2---|

Enjoy!
Suggest correction new What's this?
You can suggest a correction to this tab. Community and Mods will review your correction and vote to approve or reject it.
comments
We did not receive enough feedback on this tab! Please rate:
print report bad tab
1 2 3 4 5
guest
You may want to rate the tab now too:
select rating
Please do not post tabs as comments. Select "correction" instead!