Oops, an error
Loading. Please wait.

A Day Of Tab

version 3
version 3

Whole song

Interactive

238 views 1 this week
no commentswrite comment
1 2 3 4 5
please rate
add to favorites
launch autoscroll
font size
0
reset
how to read this tab
guitar tuner
Tab Pro tools
  • play this tab
  • loop segment
  • change instrument
  • show fretboard
  • metronome
×
Best way to learn
"A Day Of"
Autoscroll
slow
fast
+/-
esc
set tempo
stop
Contributor
Difficulty
intermediate
-------------------------------------------------------------------------------
                             A DAY OF - Biffy Clyro
-------------------------------------------------------------------------------
Tabbed by: merkinball15

After watching some live videos of this song I realized it is played in
standard tuning, not drop d like other tabs online show.  Simon also plays
a lot of parts higher up the neck, so this is my interpretation of the song
taken from live videos and by listening to the studio version.

Tuning: Standard

Intro:
e|---------------------------------------------------------------------------|
B|---------11----------------------------------------------------------------|
G|---------13b----0~------------------12-11----------------------------------|
D|--xxx----------------------------10----------------------------------------|
A|--xxx----------------------9-10--------------------------------------------|
E|--xxx-----------------0-10-------------------------------------------------|

Verse:
e|---------------------------------------------------------------------------| x2
B|---------------------------------------------------------------------------|
G|-------99-11b-------99-11b-------99-11b---------------12-11----------------|
D|-------99-9b--------99-9b--------99-9b-------------10----------------------|
A|----------------------------------------------9-10-------------------------|
E|--00-0---------00-0---------00-0---------0-10------------------------------|

e|---------------------------------------------------------------------------| x2
B|---------------------------------------------------------------------------|
G|-------99-11b12-------99-11b12-------99-11b12---------------12-11----------|
D|-------99-9b----------99-9b----------99-9b---------------10----------------|
A|----------------------------------------------------9-10-------------------|
E|--00-0-----------00-0-----------00-0-----------0-10------------------------|

Break:
e|--0~---0-0--0~--00-0~--0~-0~-/0-000---0~---0-0--0~--00-0~--0~-0~-/0-000--0-|
B|--9~---9-9--8~--88-7---4~-4~-/5-555---9~---9-9--8~--88-7~--4~-4~-/5-555--7-|
G|--11~--1111-9~--99-7~--4~-4~-/5-555---11~--1111-9~--99-7~--4~-4~-/5-555/-7-|
D|---------------------------------------------------------------------------|
A|---------------------------------------------------------------------------|
E|---------------------------------------------------------------------------|

Verse:
e|------------------------------------------------------------0-00-----------|
B|------------------------------------------------------------0-00-----------|
G|-------99-11b-------99-11b-------99-11b---------------12-11-9-99-----------|
D|-------99-9b--------99-9b--------99-9b-------------10-------9-99-----------|
A|----------------------------------------------9-10----------x-xx-----------|
E|--00-0---------00-0---------00-0---------0-10---------------0-00-----------|

e|---------------------------------------------------------------------------|
B|---------------------------------------------------------------------------|
G|-------99-11b12-------99-11b12-------99-11b12---------------12-11----------|
D|-------99-9b----------99-9b----------99-9b---------------10----------------|
A|----------------------------------------------------9-10-------------------|
E|--00-0-----------00-0-----------00-0-----------0-10------------------------|

Chorus:
e|--7-7-7-7-7-7-7-7----------------------------------------------------------| x2
B|--7-7-7-7-7-7-7-7-7-7-7-7-7-7-7-7-7-7-7-7-7-7-7-7-4-4-4-4-5-5-5-5----------|
G|--9-9-9-9-9-9-9-9-9-9-9-9-9-9-9-9-7-7-7-7-7-7-7-7-4-4-4-4-5-5-5-5----------|
D|--9-9-9-9-9-9-9-9-7-7-7-7-7-7-7-7-7-7-7-7-7-7-7-7-4-4-4-4-5-5-5-5----------|
A|--7-7-7-7-7-7-7-7-0-0-0-0-0-0-0-0-5-5-5-5-5-5-5-5-2-2-2-2-3-3-3-3----------|
E|--0-0-0-0-0-0-0-0----------------------------------------------------------|

Bridge:
e|---------------------------------------------------------------------------|
B|--8-8-8-8-7-7-7-7-8-8-8-8-7-7-7-7-8-8-8-8-7-7-7-7-8-8-8-8-7-7-7-7----------|
G|--0-0-0-0-0-0-0-0-0-0-0-0-0-0-0-0-0-0-0-0-0-0-0-0-0-0-0-0-0-0-0-0----------|
D|--x-x-x-x-x-x-x-x-x-x-x-x-x-x-x-x-x-x-x-x-x-x-x-x-x-x-x-x-x-x-x-x----------|
A|--7-7-7-7-7-7-7-7-7-7-7-7-7-7-7-7-7-7-7-7-7-7-7-7-7-7-7-7-7-7-7-7----------|
E|--0-0-0-0-0-0-0-0-0-0-0-0-0-0-0-0-0-0-0-0-0-0-0-0-0-0-0-0-0-0-0-0----------|

e|---------------------------------------------------------------------------|
B|--8-8-8-8-7-7-7-7-8-8-8-8-7-7-7-7-8-8-8-8-7-7-7-7-101010101010-------------|
G|--0-0-0-0-0-0-0-0-0-0-0-0-0-0-0-0-0-0-0-0-0-0-0-0-0-0-0-0-0-0--------------|
D|--0-0-0-0-0-0-0-0-0-0-0-0-0-0-0-0-0-0-0-0-0-0-0-0-0-0-0-0-0-0--------------|
A|--x-x-x-x-x-x-x-x-x-x-x-x-x-x-x-x-x-x-x-x-x-x-x-x-x-x-x-x-x-x--------------|
E|--6-6-6-6-6-6-6-6-6-6-6-6-6-6-6-6-6-6-6-6-6-6-6-6-6-6-6-6-6-6--------------|

e|---------------------------------------------------------------------------|
B|---------------------------------------88886666888866668888666688886666----|
G|--8-88888--8-88888--8-88888--8-88888---00000000000000000000000000000000----|
D|--x-xxxxx--x-xxxxx--x-xxxxx--x-xxxxx---xxxxxxxxxxxxxxxxxxxxxxxxxxxxxxxx----|
A|--7-77777--7-77777--7-77777--7-77777---66666666666666668888888888888888----|
E|--5-55555--5-55555--5-55555--5-55555---------------------------------------|

e|---------------------------------------------------------------------------|
B|--8-8-8-8-7-7-7-7-8-8-8-8-7-7-7-7-8-8-8-8-7-7-7-7-8-8-8-8-7-7-7-7----------|
G|--0-0-0-0-0-0-0-0-0-0-0-0-0-0-0-0-0-0-0-0-0-0-0-0-0-0-0-0-0-0-0-0----------|
D|--x-x-x-x-x-x-x-x-x-x-x-x-x-x-x-x-x-x-x-x-x-x-x-x-x-x-x-x-x-x-x-x----------|
A|--7-7-7-7-7-7-7-7-7-7-7-7-7-7-7-7-7-7-7-7-7-7-7-7-7-7-7-7-7-7-7-7----------|
E|--0-0-0-0-0-0-0-0-0-0-0-0-0-0-0-0-0-0-0-0-0-0-0-0-0-0-0-0-0-0-0-0----------|

e|---------------------------------------------------------------------------|
B|--8-8-8-8-7-7-7-7-8-8-8-8-7-7-7-7-8-8-8-8-7-7-7-7-101010101010-------------|
G|--0-0-0-0-0-0-0-0-0-0-0-0-0-0-0-0-0-0-0-0-0-0-0-0-0-0-0-0-0-0--------------|
D|--0-0-0-0-0-0-0-0-0-0-0-0-0-0-0-0-0-0-0-0-0-0-0-0-0-0-0-0-0-0--------------|
A|--x-x-x-x-x-x-x-x-x-x-x-x-x-x-x-x-x-x-x-x-x-x-x-x-x-x-x-x-x-x--------------|
E|--6-6-6-6-6-6-6-6-6-6-6-6-6-6-6-6-6-6-6-6-6-6-6-6-6-6-6-6-6-6--------------|

e|---------------------------------------------------------------------------|
B|-----------------------------88886666888866668888666688886666--------------|
G|--8-88888--8-88888--8-88888--00000000000000000000000000000000--------------|
D|--x-xxxxx--x-xxxxx--x-xxxxx--xxxxxxxxxxxxxxxxxxxxxxxxxxxxxxxx--------------|
A|--7-77777--7-77777--7-77777--66666666666666668888888888888888--------------|
E|--5-55555--5-55555--5-55555------------------------------------------------|

e|---------------------------------------------------------------------------|
B|--8-8-8-8-7-7-7-7-8-8-8-8-7-7-7-7-8-8-8-8-7-7-7-7-8-8-8-8-7-7-7-7----------|
G|--0-0-0-0-0-0-0-0-0-0-0-0-0-0-0-0-0-0-0-0-0-0-0-0-0-0-0-0-0-0-0-0----------|
D|--x-x-x-x-x-x-x-x-x-x-x-x-x-x-x-x-x-x-x-x-x-x-x-x-x-x-x-x-x-x-x-x----------|
A|--7-7-7-7-7-7-7-7-7-7-7-7-7-7-7-7-7-7-7-7-7-7-7-7-7-7-7-7-7-7-7-7----------|
E|--0-0-0-0-0-0-0-0-0-0-0-0-0-0-0-0-0-0-0-0-0-0-0-0-0-0-0-0-0-0-0-0----------|

e|---------------------------------------------------------------------------|
B|--8-8-8-8-7-7-7-7-8-8-8-8-7-7-7-7-8-8-8-8-7-7-7-7-101010101010-------------|
G|--0-0-0-0-0-0-0-0-0-0-0-0-0-0-0-0-0-0-0-0-0-0-0-0-0-0-0-0-0-0--------------|
D|--0-0-0-0-0-0-0-0-0-0-0-0-0-0-0-0-0-0-0-0-0-0-0-0-0-0-0-0-0-0--------------|
A|--x-x-x-x-x-x-x-x-x-x-x-x-x-x-x-x-x-x-x-x-x-x-x-x-x-x-x-x-x-x--------------|
E|--6-6-6-6-6-6-6-6-6-6-6-6-6-6-6-6-6-6-6-6-6-6-6-6-6-6-6-6-6-6--------------|

e|---------------------------------------------------------------------------|
B|--------------------88886666888866668888666688886666-----------------------|
G|--8-88888--8-88888--00000000000000000000000000000000-----------------------|
D|--x-xxxxx--x-xxxxx--xxxxxxxxxxxxxxxxxxxxxxxxxxxxxxxx-----------------------|
A|--7-77777--7-77777--66666666666666668888888888888888-----------------------|
E|--5-55555--5-55555---------------------------------------------------------|

Outro:
e|------------------------------------------------------0-00--0-00-----------|
B|------------------------------------------------------0-00--0-00-----------|
G|-------99-11b-------99-11b-------99-11b-------99-11b--9-99--9-99-----------|
D|-------99-9b--------99-9b--------99-9b--------99-9b---9-99--9-99-----------|
A|------------------------------------------------------x-xx--x-xx-----------|
E|--00-0---------00-0---------00-0---------00-0---------0-00--0-00-----------|

e|-----------------------------------------------------------------------------|
B|---------------------------------3~--2-0-2/4-4\------------------------------|
G|---------------12-11---------6-4-4~--3-0-3/4-4\------------------------------|
D|------------10-------------9-------------------------------------------------|
A|-------9-10------------8-9---------------------------------------------------|
E|--0-10---------------9-------------------------------------------------------|

Yeah!
comments
We did not receive enough feedback on this tab! Please rate:
print report bad tab
1 2 3 4 5
I want to post or [tab]
guest
You may want to rate the tab now too:
select rating
Please do not post tabs as comments. Select "correction" instead!