Oops, an error
Loading. Please wait.

A Girl And His Cat Tab

version 1
version 1

Whole song

Interactive

5,656 views 27 this week
no commentswrite comment
1 2 3 4 5
excellent!
x 6
add to favorites
launch autoscroll
font size
0
reset
how to read this tab
guitar tuner
Tab Pro tools
  • play this tab
  • loop segment
  • change instrument
  • show fretboard
  • metronome
×
Best way to learn
"A Girl And His Cat"
Autoscroll
slow
fast
+/-
esc
set tempo
stop
Contributor
Difficulty
Tuning
intermediate
D# G# C# F# A# D#
Tuning: Eb

This is not 100% but gives you an idea

Intro
Eb|-------------------------14-14------------------------14-14-----------|
Bb|-------------------12-12------------------------12-12-------12--------|
Gb|----------------------------------------------------------------------|
Db|-------14-14-12-12------------------14-14-12-12----------------14-12*-|x2
Ab|----------------------------------------------------------------------|
Eb|-0-0-0-------------------------0-0------------------------------------|
*hold second time 

Verse 1 
Eb|---14----|
Bb|---12----|
Gb|---12----|
Db|--(12)---|
Ab|---------|
Eb|---------|

Pre Chorus
Eb|----------0---------------------|---------0----------------------|
Bb|--7-------0---------------------|---------0----(5)---------------|
Gb|--7-------9---------------------|---------9-----5------5-5-5-5---|x2
Db|--7-------9------7-----7-7-7-7--|---9-----9-----5------5-5-5-5---|
Ab|--5-------7------7-----7-7-7-7--|---9-----7-----3------3-3-3-3---|
Eb|----------0------5-----5-5-5-5--|---7-----0----------------------|

   
Eb|----------------------------------------------------|
Bb|---15~----15~----15~--------15?----15~----17\-------|
Gb|---16~----16~----16~--------16?----16~----17\-------|
Db|--(17)---(17)---(17)-------(17)---(17)--------------|
Ab|----------------------------------------------------|
Eb|----------------------------------------------------|
      ~Quick little quarter bends~

Chorus
Eb|---------------------------------|  |---------------------------------|
Bb|--3------0------------------3----|  |--3------0------------------3----|
Gb|--2------0-----4---4-4-4-2--0----|x2|--2------0-----2---2-2-2-4--0----|
Db|--0------0-----0---0-0-0-0--0----|  |--0------0-----0---0-0-0-0--0----|
Ab|--0-----(2)----3---3-3-3-3--3----|  |--0-----(2)----3---3-3-3-3--3----|
Eb|--2------3-----------------------|  |--2------3-----------------------|

Eb|---------------------------------|
Bb|--3------0------------------3----|
Gb|--2------0-----4---4-4-4-2--0----|  Repeat all  
Db|--0------0-----0---0-0-0-0--0----|
Ab|--0-----(2)----3---3-3-3-3--3----|
Eb|--2------3-----------------------|


Verse 2
Eb|-------------------------14-14------------------------14-14-----------|
Bb|-------------------12-12------------------------12-12-------12--------|
Gb|----------------------------------------------------------------------|
Db|-------14-14-12-12------------------14-14-12-12----------------14-12--|
Ab|----------------------------------------------------------------------|
Eb|-0-0-0-------------------------0-0------------------------------------|

Eb|----------------------------14-14------------------------14-14--------|
Bb|----------------------12-12------------------------12-12--------12----|
Gb|----------------------------------------------------------------------|
Db|----------14-14-12-12------------------14-14-12-12--------------------|
Ab|-10-10-10------------------------10-10--------------------------------|
Eb|----------------------------------------------------------------------|

Eb|--------------------------14-14------------------------14-14----------|
Bb|--------------------12-12------------------------12-12-------12-------|
Gb|----------------------------------------------------------------------|
Db|-0-0-0--14-14-12-12-------------0-0--14-14-12-12----------------14-12-|
Ab|----------------------------------------------------------------------|
Eb|----------------------------------------------------------------------|

Eb|-------------------------14-14------------------------14-14-14-14-14--|
Bb|-------------------12-12------------------------12-12-12-12-12-12-12--|
Gb|------------------------------------------------------------12-12-12--|
Db|-------14-14-12-12------------------14-14-12-12-----------------------|
Ab|----------------------------------------------------------------------|
Eb|-0-0-0-------------------------0-0------------------------------------|

Pre Chorus
Chorus

Break
Eb|-----------7-----------8---------------7-----8---------|
Bb|---------0-------------8-----------7---------8---------|
Gb|-------7-------------0-----------7-----------0---------|
Db|-----0-------------0-----------7-------------X---------|
Ab|---7-------------------------0---------------X---------|
Eb|-0---------------8---------------------------8---------|

Eb|----------------------------|
Bb|----------------------------|
Gb|--------5-----2-----5-------|
Db|--2-----5-----2-----5-------|
Ab|--2-----3-----0-----3-------|
Eb|--0-------------------------|

Solo type thing (fast strumming)
Eb|--------------------------------------------------|
Bb|--------------------------------------------------|
Gb|--16-------19----21--12-14-16-----19----17--------|
Db|--------------------------------------------------|
Ab|--14-------17----19--10-12-14-----17----15--------|
Eb|--------------------------------------------------|


Then to end...
Eb|----------------------------------------------------|
Bb|---15~----15~----15~--------15?----15~----17--------|
Gb|---16~----16~----16~--------16?----16~--------------|
Db|--(17)---(17)---(17)-------(17)---(17)--------------|
Ab|----------------------------------------------------|
Eb|----------------------------------------------------|
      ~Quick little quarter bends~


And there it is, hope it makes sense. I've done a cover of this tab if you are interested:
http://www.youtube.com/watch?v=nkCd0KPKTzQ&feature=youtu.be
comments
print report bad tab
I want to post or [tab]
guest
You may want to rate the tab now too:
select rating
Please do not post tabs as comments. Select "correction" instead!