Oops, an error
Loading. Please wait.

A Mong Among Mingers Tab

876 views 1 this week
1 commentread comment
1 2 3 4 5
please rate
add to favorites
launch autoscroll
font size
0
reset
how to read this tab
guitar tuner
Tab Pro tools
  • play this tab
  • loop segment
  • change instrument
  • show fretboard
  • metronome
×
Best way to learn
"A Mong Among Mingers"
Autoscroll
slow
fast
+/-
esc
set tempo
stop
Contributor
Difficulty
Tuning
intermediate
D A D G B E
LIBERATE THE ILLITERATE/A MONG AMONG MINGERS-BIFFY CLYRO-VERTIGO OF BLISS 
Tabbed by:Frusciante_50
Drop D Tuning

Note: h=hammer on   p=pull off   x=mute   

The intro is based around these two chords:

e|-2-------------3---------------------------------------------------------|
B|-1-------------0---------------------------------------------------------|
G|-2-------------0---------------------------------------------------------|
D|-0-------------2---------------------------------------------------------|
A|-------------------------------------------------------------------------|
D|-------------------------------------------------------------------------|

Intro:

e|-2-2-2------2-2------3----------0h2-0h2------0h2-0-0------3--------------|
B|-1-1-1------1-1------0----------1-1-1-1------1---1p0------0--------------|
G|-2-2-2------2-2------0----------2-2-2-2------2---2-2------0--------------|
D|-0-0-0--1-1-0-0--2-2-2--------0-0-0-0-0--1-1-0---0-0--2-2-2--------------|
A|---------------------------------------------------------------0-2-3-----|
D|------------------------------------------------------------5------------|

e|---0h2-0h2------0h2-0-0------3----0h2---0-------0h2-0------3-------------|
B|---1-1-1-1------1---1p0------0--------1---------1-1-1------0-------------|
G|---2-2-2-2------2---2-2------0------------------2-2-2------0-------------|
D|---0-0-0-0--1-1-0---0-0--2-2-2-------------1-1--0-0-0--2-2-2-------------|
A|-------------------------------------------------------------------------|
D|0-------------------------------0----------------------------------------|

Verse:

e|-------------------------------------------------------------------------|
B|-------------------------------------------------------------------------|
G|-16-16---16-16-16--12----16-16---16-16-16--12--11-11--11-11-11--12--12-12|
D|--x--x----x--x--x---x-----x--x----x--x--x---x---x--x---x--x--x---x---x--x|
A|-14-14---14-14-14--10----14-14---14-14-14--10---9--9---9--9--9--10--10-10|
D|-------------------------------------------------------------------------|

e|-------------------------------------------------------------------------|
B|-------------------------------------------------------------------------|
G|-12-12-12---14--16-16----16-16-16--14-12---------------------------------|
D|--x--x--x----x---x--x-----x--x--x---x--x---------------------------------|
A|-10-10-10---12--14-14----14-14-14--12-10---------------------------------|
D|-------------------------------------------------------------------------|

Repeat, until the run down:

e|------------3---3---5----------------3---3---5---------------------------|
B|------------5---3---7----------------5---3---7---------------------------|
G|-11--9--7---5---4---7----------------5---4---7---------------------------|
D|--x--x--x---5---5---7---2-2-2-2-2-0--5---5---7---------------------------|
A|--9--7--5---3---5---5---2-2-2-2-2-0--3---5---5---------------------------|
D|------------------------2-2-2-2-2-0--------------------------------------|

Then:

e|-------------------------------------------------------------------------|
B|-------------------------------------------------------------------------|
G|---------------------------------------------9-9--9-9-9------------------|
D|-2-0-2---2-0-2---2-0-------------------------9-9--9-9-9------------------|
A|-2-0-2---2-0-2---2-0-------------------------7-7--7-7-7------------------|
D|-2-0-2---2-0-2---2-0----2-0-2--2-0-2--2-0--------------------------------|

e|-------------------------------------------------------------------------|
B|-------------------------------------------------------------------------|
G|-------------------------------------------------------------------------|
D|-------------------------------------------------------------------------|
A|-7-5-7---7-5-7---7-5-----------------------------------------------------|
D|-----------------------2-0-2---2-0-2-6-0----2-0-2---2-0-2-6-7-0----------|

e|---------------------------4-4-4-4-4-5-5-5-5-4---------------------------|
B|---------------------------5-5-5-5-5-5-5-5-5-5---------------------------|
G|-------------------------------------------------------------------------|
D|-------------------------------------------------------------------------|
A|-------------------------------------------------------------------------|
D|2-0-2---2-0-2-6-7-9----0-------------------------------------------------|

e|--------------7--9-9-9-9-7---7--9-9-9-9-7--------------------------------|
B|--------------x--x-x-x-x-x---x--x-x-x-x-x--------------------------------|
G|--------------4--6-6-6-6-4---4--6-6-6-6-4--------------------------------|
D|-4-4-4-4-4-4-----------------------------------4-4-4-4-4-4-4-------------|
A|-4-4-4-4-4-4-----------------------------------4-4-4-4-4-4-4-------------|
D|-4-4-4-4-4-4-----------------------------------4-4-4-4-4-4-4-------------|

Chorus type thing

e|-------------------------------------------------------------------------|
B|-------------------------------------------------------------------------|
G|-------------------------------------------------------------------------|
D|-0---2----4-2-4---4-2-4---x-x----0---2----4-2-4---4-2-4---x-x------------|
A|-0---2----4-2-4---4-2-4---x-x----0---2----4-2-4---4-2-4---x-x------------|
D|-0---2----4-2-4---4-2-4---x-x----0---2----4-2-4---4-2-4---x-x------------|

e|-------------------------------------------------------------------------|
B|-------------------------------------------------------------------------|
G|-------------------------------------------------------------------------|
D|-0-----4-------0-----4-------0-----4---2---0-----------------------------|
A|-0-----4-------0-----4-------0-----4---2---0-----------------------------|
D|-0-----4-------0-----4-------0-----4---2---0-----------------------------|

Then repeat intro, but play this after the first section

e|-3--5--7--5--------------------------------------------------------------|
B|-------------------------------------------------------------------------|
G|-0--2--4--2--------------------------------------------------------------|
D|-------------------------------------------------------------------------|
A|-------------------------------------------------------------------------|
D|-------------------------------------------------------------------------|

Then play the verse riffs again, then play chorus.

Quiet part:

e|-------------------------------------------------------------------------|
B|-------------------------------------------------------------------------|
G|-------------------------------------------------------------------------|
D|-------------------------------------------------------------------------|
A|-0-0-------------7-7--0---12-12-12---------------------------------------|
D|------3-3-4--0-----------------------------------------------------------|

Play x 2, then play (palm muted):

e|-------------------------------------------------------------------------|
B|-------------------------------------------------------------------------|
G|-------------------------------------------------------------------------|
D|-------------------------------------------------------------------------|
A|-------------------------------------------------------------------------|
D|-7-7-7-7-7-7-7-7---3-3-3-3-3-3-3-3---4-4-4-4-4-4-4-4---3-3-3-3-3-3-3-3---|

e|-------------------------------------------------------------------------|
B|-------------------------------------------------------------------------|
G|-------------------------------------------------------------------------|
D|-------------------------------------------------------------------------|
A|-------------------------------------------------------------------------|
D|-6-6-6-6-6-6-6-6---7-7-7-7-7-7-7-7---------------------------------------|

Unmuted (unsure of how many times to play, but play until power chords)

e|-5-5-5-5-5-5-5-5-5-4-4-4-4-4-4-------------------------------------------|
B|-5-5-5-5-5-5-5-5-5-5-5-5-5-5-5-------------------------------------------|
G|-------------------------------------------------------------------------|
D|-------------------------------------------------------------------------|
A|-------------------------------------------------------------------------|
D|-------------------------------------------------------------------------|

Power chords:

e|-------------------------------------------------------------------------|
B|-------------------------------------------------------------------------|
G|-------------------------------------------------------------------------|
D|--7---------0--------7--------0------------------------------------------|
A|--7-(x16)---0-(x16)--7-(x16)--0-(x16)------------------------------------|
D|--7---------0--------7--------0------------------------------------------|

Outro:

e|-5-5-5-4-5---4-4-4-5-2---------------------------------------------------|
B|-5-5-5-5-5---5-5-5-5-5---------------------------------------------------|
G|-------------------------------------------------------------------------|
D|-------------------------------------------------------------------------|
A|-------------------------------------------------------------------------|
D|-------------------------------------------------------------------------|

Repeat

ENJOY!

comments
We did not receive enough feedback on this tab! Please rate:
print report bad tab
1 2 3 4 5
1 comment total.
0 reply
mon_the_fraser wrote on November 16 2007, 04:47 pm

Dammit this boy is good at tabbing shizzle keep it up!

I want to post or [tab]
guest
You may want to rate the tab now too:
select rating
Please do not post tabs as comments. Select "correction" instead!