Oops, an error
Loading. Please wait.

A Whole Child Ago Bass Tab

version 1
version 1

Whole song

Interactive

5,185 views 1 this week
3 commentsread comments
1 2 3 4 5
accurate
x 5
add to favorites
launch autoscroll
font size
0
reset
guitar tuner
Tab Pro tools
  • play this tab
  • loop segment
  • change instrument
  • show fretboard
  • metronome
×
Best way to learn
"A Whole Child Ago"
Autoscroll
slow
fast
+/-
esc
set tempo
stop
Contributor
Difficulty
Tuning
novice
D A D G B E
-------------------------------------------------------------------------------
			     A WHOLE CHILD AGO - Biffy Clyro
-------------------------------------------------------------------------------

Tabbed By : ashers67
e-mail: ashley_d_is_still@hotmail.com

This is my first ever tab, done for a friend, please leave feedback/corrections. Also 
that the open A could be played at the 7th fret on the low D or the open high D could be 
at the 5th fret on the A (which I prefer but have put the open notes here for my friends sake)

Tuning Drop D - DADG

(Very Short) Intro - no bass

Verse *1 & 2

G---------------6-6-----------------------------|
D--------7----------7-0-----7-7-4-4-----7-7-4-4-|   X1
A-----------------------------------------------|
D-----------------------------------------------|


G----6-6--------6-6-----------------------------|
D--------7-7--------7-0-----7-7-4-4-----7-7-4-4-|   X5
A-----------------------------------------------|
D-----------------------------------------------|

Pre-Chorus

G----------------|-------------------|
D----000-----000-|----777777700000000|  X2
A----------------|-------------------|
D----------------|-------------------|

G----------------|
D----------------|
A--------00000000|
D----444---------|

Chorus

G-------------------------|---------------------------------|
D-------------------------|---------------------------------|
A0000000004444444477777777|--------00000000-----------------|
D-------------------------|44444444--------0000000000000000-|

Pre-Bridge

G------------------|
D------------------|
A------------------|
D--0-0-0--00-0-0-0*|  * - let ring

Bridge

G---------------------------------|--------------------------------|
D---------------------------------|--------------------------------|   X2
A----0-0-00-0---------------------|--------------------------------|
D-------------0-0-00-0--0-0-00-0--|--4-4-4-4-0-0-0-0-0-0-0-0-------|

Outro
G----------------     |----------------|
D----------------  X7 |----------------|
A------007700----     |------0077------|
D----44----------     |----44----7b(9)\|

Order:

Verse
Pre-chorus
Chorus (X1)
Verse
Pre-chorus
Chorus (x2)
Pre-Bridge
Bridge (x2)
Outro
comments
print report bad tab
3 comments total.
0 reply
Mon the Biffy wrote on June 13 2007, 04:21 pm

verse is perfect but sorry, the rest is a bit off.

0 reply
01blytheda wrote on August 15 2007, 11:57 am

Yeah verse sound perfect but im not too sure about the rest.

0 reply
ashers67 wrote on August 19 2007, 10:03 am

yeah I agree, if anyone can tell me how I can edit it I'd be very grateful

I want to post or [tab]
guest
You may want to rate the tab now too:
select rating
Please do not post tabs as comments. Select "correction" instead!