Oops, an error
Loading. Please wait.

A Whole Child Ago Tab

version 1
version 1

Whole song

Interactive

Video

16,973 views 12 this week
3 commentsread comments
1 2 3 4 5
accurate
x 8
add to favorites
launch autoscroll
font size
0
reset
how to read this tab
guitar tuner
Tab Pro tools
  • play this tab
  • loop segment
  • change instrument
  • show fretboard
  • metronome
Autoscroll
slow
fast
+/-
esc
set tempo
stop
Contributor
Difficulty
novice
Tuning Low To High - DADGBE

Intro/Main Riff
E|-----------------|
B|---------2-2-----|
G|-----2-2-----2-2-|
D|-4-4-------------|
A|-----------------|
D|-----------------|

Variation
E|-----------------------------------------------------------------|
B|-----2-2-----2-2---------2-2-------------2-2-------------2-2-----|
G|-2-2-----2-2---------2-2-----2-2-----2-2-----2-2-----2-2-----2-2-|
D|-----------------0-0-------------4-4-------------4-4-------------|
A|-----------------------------------------------------------------|
D|-----------------------------------------------------------------|

Prechorus "and a whole child ago"
E|-----------------------------------------------------------------|
B|-----------------------------------------------------------------|
G|-----------------------------------------------------------------|
D|-2-2-2~----------2-2-2~------------------------------------------|
A|-0-0-0~----------0-0-0~------------------------------------------|
D|-----------------------------------------------------------------|x2

E|---------------------------------|
B|---------------------------------|
G|---------------------------------|
D|-4-4-4-----------7-7-7-----------|
A|-2-2-2-----------5-5-5-----------|
D|---------------------------------|

Chorus "Looks like ive made it........"
E|-----------------------------------------------------------------|
B|-----------------------------------------------------------------|
G|-2-2-2-2-2-2-2-2-2-2-2-2-2-2-2-2-4-4-4-4-4-4-4-4-7-7-7-7-7-7-7-7-|
D|-2-2-2-2-2-2-2-2-2-2-2-2-2-2-2-2-4-4-4-4-4-4-4-4-7-7-7-7-7-7-7-7-|
A|-0-0-0-0-0-0-0-0-0-0-0-0-0-0-0-0-2-2-2-2-2-2-2-2-5-5-5-5-5-5-5-5-|
D|-----------------------------------------------------------------|

E|-------------------------------------------------------------------|
B|-------------------------------------------------------------------|
G|-2-2-2-2-2-2-2-2-----------------777-----999-----111111-----131313-|
D|-2-2-2-2-2-2-2-2-4-4-4-4-4-4-4-4-xxx-----xxx----- x x x----- x x x-|
A|-0-0-0-0-0-0-0-0-4-4-4-4-4-4-4-4-555-----777----- 9 9 9-----111111-|
D|-----------------4-4-4-4-4-4-4-4-----------------------------------|

Prechorus 2
E|-----------------------------------------------------------------|
B|-----------------------------------------------------------------|
G|-----------------------------------------------------------------|
D|-7-7-7-----------7-7-7-----------7-7-7-7-7-7-7-7-4-4-4-4-4-4-4-4-|
A|-7-7-7-----------7-7-7-----------7-7-7-7-7-7-7-7-4-4-4-4-4-4-4-4-|
D|-7-7-7-----------7-7-7-----------7-7-7-7-7-7-7-7-4-4-4-4-4-4-4-4-|

Chords into 2nd chorus I dont know, its two so work them out for yourself and me lol.

CHORUS AGAIN

Build Up
E|---------------------------------|
B|---------------------------------|
G|-7-7-7-7-7-7-7-7-7~--------------|
D|-0-0-0-0-0-0-0-0-0~--------------|
A|-5-5-5-5-5-5-5-5-5~--------------|
D|-0-0-0-0-0-0-0-0-0~--------------| (or 5s for this line)

"Why Dont You Just Ask Her Yourself"
E|-------------------------------------------------|
B|-------------------------------------------------|
G|---------2-2-2-2-2-2-2-2---------2-2-2-2-2-2-2-2-|
D|-7-7-7-7-0-0-0-0-0-0-0-0-4-4-4-4-0-0-0-0-0-0-0-0-|
A|-7-7-7-7-0-0-0-0-0-0-0-0-4-4-4-4-0-0-0-0-0-0-0-0-|
D|-7-7-7-7-0-0-0-0-0-0-0-0-4-4-4-4-0-0-0-0-0-0-0-0-|


Before Outro Riff
E|-----------------------------------------------------------------|
B|-----2-2-----2-2---------2-2-------------2-2-------------2-2-----|
G|-2-2-----2-2---------2-2-----2-2-----2-2-----2-2-----2-2-----2-2-|
D|-----------------0-0-------------4-4-------------4-4-------------|
A|-----------------------------------------------------------------|
D|-----------------------------------------------------------------|

2nd Guitar
E|----------------------------|
B|----------------------------|
G|-14-14-14-141414-14-14-1414-|
D|----------------------------|
A|-12-12-12-121212-12-12-1212-|
D|----------------------------|

Outro
E|---------------------------------|
B|---------------------------------|
G|---------------------------------|
D|---------------------------------|
A|---------4-4-------------4-4-----|
D|-4-4-7-7-----7-7-4-4-7-7-----7-7-|

E|---------------------------------|
B|---------------------------------|
G|---------------------------------|
D|---------------------------------|
A|---------4-4-7-7---------4-4-7-7-|
D|-4-4-7-7---------4-4-7-7---------|



then a weird bend on the 7th fret on the d (6th) string i think


and thats all folks

Tab by Anty (aka facelift85)

murder_maggot666@hotmail.com
comments
print report bad tab
3 comments total.
0 reply
Gary the Hann wrote on June 11 2007, 02:58 pm

Thats perfection that is.

0 reply
anty wrote on June 11 2007, 03:47 pm

thanks alot :)

0 reply
ed182 wrote on August 30 2008, 08:04 am

isnt the prechorus a D not an A?

I want to post or [tab]
guest
You may want to rate the tab now too:
select rating
Please do not post tabs as comments. Select "correction" instead!