Oops, an error
Loading. Please wait.

A Whole Child Ago Bass Tab

version 2
version 2

Whole song

Interactive

12,792 views 12 this week
7 commentsread comments
1 2 3 4 5
x 11
add to favorites
launch autoscroll
font size
0
reset
guitar tuner
Autoscroll
slow
fast
+/-
esc
set tempo
stop
Help us to improve Ultimate-Guitar.com Take our survey!
×
Author
Difficulty
intermediate
This is my first ever attempt to create a tab so fingers crossed.


Biffy Clyro
A Whole Child Ago
Puzzle
2007


G-----66-----22----22----66----66-----22----22----66----|
D--77----7------44----44----77----7------44----44----77-|
A----------5------------------------5-------------------|
D-------------------------------------------------------|          x5

G--66---22----22----|
D-----7----44----44-|
A-------5-----------|
D-------------------|          x1

G---------------------------------------------------------------------|
D-----------77777777-44444444----------77777777-44444444-----55555555-|
A--555-555--------------------555-555--------------------444----------|
D---------------------------------------------------------------------|

G------------------------------------------------------------------------|
D------------------------------------------------------------------------|
A--0000000000000000-22222222-55555555-00000000---------------------------|
D----------------------------------------------44444444-0000000000000000-|

G-----66-----22----22----66----66-----22----22----66----|
D--77----7------44----44----77----7------44----44----77-|
A----------5------------------------5-------------------|
D-------------------------------------------------------|          x5

G--66-----22----22-------------|
D-----7------44----44----------|
A-------5----------------------|
D------------------------------|          x1

G---------------------------------------------------------------------|
D-----------77777777-44444444----------77777777-44444444-----55555555-|
A--555-555--------------------555-555--------------------444----------|
D---------------------------------------------------------------------|

G------------------------------------------------------------------------|
D------------------------------------------------------------------------|
A--0000000000000000-22222222-55555555-00000000---------------------------|
D----------------------------------------------44444444-0000000000000000-|  x2

Why don't you just ask her yourself?

G--
D--
A--00000000
D-----------00-000-00-000-00-00-0~     (as many times as it should be played)

G-----66-----22----22----66----66-----22----22----66----|
D--77----7------44----44----77----7------44----44----77-|
A----------5------------------------5-------------------|
D-------------------------------------------------------|          x2

G--------------------------|
D--------------------------|
A-----00-44-00----00-44-00-|
D--44----------44----------|          x3

G---------------|
D---------------|
A-----00-44-0-4-|
D--44-----------|                                            The End

Please let me know what you think as it is my first attempt. It's the whole song in 
order as should be played.

Thanks Si :)
Suggest correction
comments
print report bad tab
7 comments total. Showing first comments.
-1 reply
Nathan333 30 Sep 28, 2007 11:32 AM

Great first tab mate! ****in awesome bass line, ****in awesome song, ****in awesome band! anyway, one suggestion: on the outro try using the 2nd fret on the E string as opposed to the 4th, apart from that, nice tab

0 reply
prophetsfan 20 Feb 02, 2008 06:31 PM

nice tab. and nathan, its in drop D lol;) no e string, but in drop D the 4th fret is same as E's 2nd fret. good tab, i
dont have my bass but i played it on my guitar sounds great

0 reply
8455157 127 Jun 04, 2008 05:06 PM

i look at the E being on fret 2 of the D string. just worked that out just now. some songs are not the same, E is on the 3rd fret thats where i got confused.

But yeah to the point. i love this song and the tab u created is perfect...maybe exept the final 4 on the standard D string G
that one -----> D
A
D

i play the 2nd fret on there

guest
You may want to rate the tab now too:
select rating
Wanna post a correction for this tab? Suggest correction