Oops, an error
Loading. Please wait.

All The Way Down Bass Tab

version 1
version 1

Whole song

Interactive

1,824 views 3 this week
no commentswrite comment
1 2 3 4 5
excellent!
x 9
add to favorites
launch autoscroll
font size
0
reset
guitar tuner
Tab Pro tools
  • play this tab
  • loop segment
  • change instrument
  • show fretboard
  • metronome
Autoscroll
slow
fast
+/-
esc
set tempo
stop
Contributor
Difficulty
Tuning
intermediate
D A D G B E
Song: All the Way Down
Artist: Biffy Clyro
Album: The Vertigo of Bliss


0.33
G|-----------------------------------------------------|
D|-----------------------------------------------------|
A|--------0-----------0-----------0-----------7-7-7-7--|
D|--5--5-----3--5--5-----3--5--5-----3--5--5-----------|

0.50
G|-----------------------------------|
D|-------3----2----0--------------3--|
A|--0-------------------0----3-------|
D|-----------------------------------|

1.06
G|----------------------------------------|
D|-------3----2----0--------------3----3--|
A|--0-------------------0----3------------|
D|----------------------------------------|

1.23
G|--------------------|
D|-----------------3--|
A|--0----2----3-------|
D|--------------------|

1.31
G|---------------------------------------------------------|
D|---------------------------------------------------------|
A|--------0-----------0-----------0-----------7-7-7-0-0-0--|
D|--5--5-----3--5--5-----3--5--5-----3--5--5---------------|

1.48
G|-------------------------------------------------------|
D|-------------------------------------------------------|
A|--2--2--2--0-0----------0-0-2--2--2--0-0----------0-0--|
D|---------------5--5--5-------------------5--5--5-------|

2.05
G|--------------------------------------------------|
D|--------------------------------------------------|
A|--2--2--2--0-0----------0-0-2--2--2--0-0----------|
D|---------------5--5--5-------------------5--5--5--|

2.22
G|---------------------------|
D|---------------------------|
A|------------0--------------|
D|--0--4--0--2-2-0--7--4--2--| X4

2.55
G|---------------------------------------|
D|---------------------------------------|
A|---------------------------------------|
D|--0--------5--------0-------5----------|

3.12
G|--------------------------------------------|
D|--------------------------------------------|
A|--------------------------------------------|
D|--0----0----5----5----0----0----5----5------|

3.29
G|---------------------------------------|
D|---------------------------------------|
A|---------------------------------------|
D|--7--7-7--7--7-7--5--------------------|X4

3.47
G|---------------------------------------|
D|---------------------------------------|
A|--5--5--5--5---------------------------|
D|-------------4-5--5--5--5--------------|X3

4.13
G|---------------------------------------|
D|---------------------------------------|
A|---------------------------------------|
D|--7--7-7--7--7-7--5--------------------|X3

4.26
G|------------------------------------------|
D|------------------------------------------|
A|------------------------------------------|
D|--7--7-7--7--7-7--5--5-5-5-5-5-5-5-5-5-5--|

4.31
G|--------------------------------------------------|
D|--------------------------------------------------|
A|--------------------------------------------------|
D|--0--0--0--0--5--5--5--5--0--0--0--0--5--5--5--5--|

4.49
G|------------------|
D|------------------|
A|------------------|
D|--7--7-7--7--7-7--|X4

5.07
G|--------------------------------------------------|
D|--------------------------------------------------|
A|--------------------------------------------------|
D|--0--0--0--0--5--5--5--5--9--9--9--9--5--5--5--5--|

5.24
G|--------------------------------------------------|
D|--------------------------------------------------|
A|--------------------------------------------------|
D|--0--0--0--0--5--5--5--5--0--0--0--0--5--5--5--5--|

5.42
G|--------------------------------------------------|
D|--------------------------------------------------|
A|--------------------------------------------------|
D|--0--0--0--0--5--5--5--5--9--9--9--9--5--5--5--5--|

6.00
G|--------------------------------------------------|
D|--------------------------------------------------|
A|--------------------------------------------------|
D|--0--0--0--0--5--5--5--9-9-7-0--0--0--0--5--5--5--|

6.18
G|-------------------------------------|
D|-------------------------------------|
A|-------------------------------------|
D|--0-------/5-------/12-------\5------|
comments
print report bad tab
I want to post or [tab]
guest
You may want to rate the tab now too:
select rating
Please do not post tabs as comments. Select "correction" instead!