Oops, an error
Loading. Please wait.

All The Way Down Chapter 2 Tab

version 2
version 2

Whole song

Interactive

1,360 views 3 this week
7 commentsread comments
1 2 3 4 5
accurate
x 5
add to favorites
launch autoscroll
font size
0
reset
how to read this tab
guitar tuner
Tab Pro tools
  • play this tab
  • loop segment
  • change instrument
  • show fretboard
  • metronome
×
Best way to learn
"All The Way Down Chapter 2"
Autoscroll
slow
fast
+/-
esc
set tempo
stop
Contributor
Song: All the way down chapter 2 (New Version)
Band: Biffy Clyro
Album: JDI 7" Vinyl B side
Tabber: Daniel King
Email: neo8549@hotmail.com

*If you have used this tab please rate

Drum Intro

E|----------------------------------------------------------|
B|---------------------------------------------9-/-19-------|
G|---------------------------------------------9-/-20-------|
D|--9-9-9-9-9-9-9-9-9-9-9-9--12--12--(*4)-------------------|
A|--9-9-9-9-9-9-9-9-9-9-9-9--12--12-------------------------|
D|--9-9-9-9-9-9-9-9-9-9-9-9--12--12-------------------------|

[Leave the barred D (12th fret) on the fourth time round]

E|--------------------------------------------------0-------|
B|-----14----14----14----14----14----14----14----14---------|
G|--17----17----17----17----17----17----17----17------------|
D|----------------------------------------------------------|
A|----------------------------------------------------------|
D|------Repeat-this-again-but-at-about-double-speed---------|

E|----------------------------------------------------------|
B|----------------------------------------------------------|
G|----------------------------------------------------------|
D|--4-4-0-0-12--12--12--12------4-4-0-0-9-9-9-9-9-9-9-9-9---|
A|--4-4-0-0-12--12--12--12------4-4-0-0-9-9-9-9-9-9-9-9-9---| (*4)
D|--4-4-0-0-12--12--12--12------4-4-0-0-9-9-9-9-9-9-9-9-9---|

Verse

E|----------------------------------------------------------|
B|----------------------------------------------------------|
G|----------------------------------------------------------|
D|--9-9-9-9-9-9-9-9-9-9-9-9--12--12----(*2)-----------------|
A|--9-9-9-9-9-9-9-9-9-9-9-9--12--12-------------------------|
D|--9-9-9-9-9-9-9-9-9-9-9-9--12--12-------------------------|

E|----------------------------------------------------------|
B|----------------------------------------------------------|
G|---------------------------7---7--------------------------|
D|--5-5-5-5-5-5-5-5-5-5-5-5--7---7-----(*2)-----------------|
A|--5-5-5-5-5-5-5-5-5-5-5-5--5---5--------------------------|
D|--5-5-5-5-5-5-5-5-5-5-5-5--0---0--------------------------|

Repeat Verse

Chorus

E|----------------------------------------------------------|
B|----------------------------------------------------------|
G|----------------------------------------------------------|
D|--0-0-0-0-0-0-0-0--9--9--9--9--11-11-11-11----------------|
A|--0-0-0-0-0-0-0-0--9--9--9--9--9--9--9--9-----------------|
D|--0-0-0-0-0-0-0-0--9--9--9--9--9--9--9--9-----------------|

E|----------------------------------------------------------|
B|----------------------------------------------------------|
G|------------------7-7-7-7-7-7-7-7-------------------------|
D|--5-5-5-5-5-5-5-5-7-7-7-7-7-7-7-7-------------------------|
A|--5-5-5-5-5-5-5-5-5-5-5-5-5-5-5-5-------------------------|
D|--5-5-5-5-5-5-5-5-0-0-0-0-0-0-0-0-------------------------|

Repeat Chorus

Back to Verse

Bridge (part1)

E|----------------------------------------------------------|
B|------------------------------------5--------7------------|
G|--6--6--7---------6--------7------------------------------|
D|----------------------------------------------------------|
A|--5--5--5------5--------5--------5--------5---------------|
D|-----0--0---0--------0--------0-------0-------------------|

E|----------------------------------------------------------|
B|----------------------------------------------------------|
G|--6--6--7---6-7-6-7-6-7-6-7-------------------------------|
D|----------------------------------------------------------|
A|--5--5--5---5-5-5-5-5-5-5-5-------------------------------|
D|-----0--0---0-0-0-0-0-0-0-0-------------------------------|

Bridge (part2)

E|----------------------------------------------------------|
B|----------------------------------------------------------|
G|----------------------7-----------------------------------|
D|--7-7-7-7-7-7-7-7-----7-----------------------------------|
A|--4-4-4-4-7-7-7-7--0--5-----------------------------------|
D|--4-4-4-4-7-7-7-7--0--0-----------------------------------|

E|----------------------------------------------------------|
B|----------------------------------------------------------|
G|--11-11-11-11-11-4-4-4-4-----7----------------------------|
D|--11-11-11-11-11-4-4-4-4-----7----------------------------|
A|--9--9--9--9--9--2-2-2-2--0--5----------------------------|
D|--------------------------0--0----------------------------|

Repeat Bridge (part2)

Agressive Outro

E|----------------------------------------------------------|
B|----------------------------------------------------------|
G|--------9~--------6~--------------------------------------|
D|--7-7-7-----4-4-4----9-9-9-9-9-9-9-9-7-7-7-7-7-7-7-7------|
A|--7-7-7-----4-4-4----9-9-9-9-9-9-9-9-7-7-7-7-7-7-7-7------|
D|--7-7-7-----4-4-4----9-9-9-9-9-9-9-9-7-7-7-7-7-7-7-7------|

E|----------------------------------------------------------|
B|----------------------------------------------------------|
G|-------------------7-7-7-7-7-7-7-7------------------------|
D|---0-0-0-0-0-0-0-0-7-7-7-7-7-7-7-7------------------------|
A|---0-0-0-0-0-0-0-0-5-5-5-5-5-5-5-5------------------------|
D|---0-0-0-0-0-0-0-0-0-0-0-0-0-0-0-0------------------------|

Repeat Agressive Outro

E|----------------------------------------------------------|
B|----------------------------------------------------------|
G|----------------------------------------------------------|
D|--4-4-0-0-12--12--12--12------4-4-0-0-9-9-9-9-9-9-9-9-9---|
A|--4-4-0-0-12--12--12--12------4-4-0-0-9-9-9-9-9-9-9-9-9---| (*4)
D|--4-4-0-0-12--12--12--12------4-4-0-0-9-9-9-9-9-9-9-9-9---|

E|--------|-------------------------------------------------|
B|--------|-------------------------------------------------|
G|--------|-------------------------------------------------|
D|--4p0-0-|-9-9-9--9-9-9--9-9-9--9-9-9--9-9-9---------------| (*11)
A|--4p0-0-|-9-9-9--9-9-9--9-9-9--9-9-9--9-9-9---------------|
D|--4p0-0-|-9-9-9--9-9-9--9-9-9--9-9-9--9-9-9---------------|

E|----------------------------------------------------------|
B|----------------------------------------------------------|
G|----------------------------------------------------------|
D|--9-9--9-9--9-9--9-9--10-10-------------------------------|
A|--9-9--9-9--9-9--9-9--10-10-------------------------------|
D|--9-9--9-9--9-9--9-9--10-10-------------------------------|
comments
print report bad tab
7 comments total. Showing first comments.
0 reply
monkeyboi1992 wrote on April 13 2007, 09:06 am

thats crap!

0 reply
deicide-r-lefal wrote on January 12 2009, 05:35 pm

good job.. perfect
mon the biffy!

0 reply
joni_xz wrote on August 18 2009, 12:36 pm

how is it crap??

Its pretty much perfect!

I want to post or [tab]
guest
You may want to rate the tab now too:
select rating
Please do not post tabs as comments. Select "correction" instead!