Oops, an error
Loading. Please wait.

All The Way Down Tab

version 1
version 1

Whole song

Interactive

25,270 views 39 this week
8 commentsread comments
1 2 3 4 5
excellent!
x 27
add to favorites
launch autoscroll
font size
0
reset
how to read this tab
guitar tuner
Tab Pro tools
  • play this tab
  • loop segment
  • change instrument
  • show fretboard
  • metronome
Autoscroll
slow
fast
+/-
esc
set tempo
stop
Contributor
Difficulty
Tuning
intermediate
D A D G B E
ALL THE WAY DOWN-BIFFY CLYRO-VERTIGO OF BLISS
Tabbed by:Frusciante_50
Drop D Tuning

I noticed that there was no complete tab for this, so I made my own

Note: x=mute string   h=hammer on   ()=natural harmonics   b=bend

Intro (listen for strumming patterns on record, but these are the chords):
e|-0-0--0-0--0-0--0-0-0-----0----0-0-0----0-0-0-0-0-0----------------------|
B|-1-1--1-1--1-1--1-1-1-----1----1-1-1----1-1-1-1-1-1----------------------|
G|-0-0--0-0--0-0--0-0-0-----0----0-0-0----2-2-2-2-2-2----------------------|
D|-2-2--2-2--2-3--3-3-3-----2----2-2-2----0-0-0-0-0-0----------------------|
A|-0-0--0-0--0-0--0-0-0-----3----3-3-3----0-0-0-0-0-0----------------------|
D|-------------------------------------------------------------------------|

Verse 1:
e|-0-0--0-0--0-0--0-0-0-----0----0-0-0----0-0-0-0-0-0----------------------|
B|-1-1--1-1--1-1--1-1-1-----1----1-1-1----1-1-1-1-1-1----------------------|
G|-0-0--0-0--0-0--0-0-0-----0----0-0-0----2-2-2-2-2-2----------------------|
D|-2-2--2-2--2-3--3-3-3-----2----2-2-2----0-0-0-0-0-0----------------------|
A|-0-0--0-0--0-0--0-0-0-----3----3-3-3----0-0-0-0-0-0----------------------|
D|-------------------------------------------------------------------------|

e|-0-0-0-0---0-0-0-0---0-0-0-0--0---0-0-0---0---0-0-0----------------------|
B|-1-1-1-1---1-1-1-1---1-1-1-1--1---0-0-0---1---0-0-0----------------------|
G|-2-2-2-2---0-0-0-0---2-2-2-2--2---2-2-2---2---2-2-2----------------------|
D|-2-2-2-2---2-2-2-2---3-3-3-3--3---3-3-3---3---3-3-3----------------------|
A|-0-0-0-0---3-3-3-3---3-3-3-3--3---3-3-3---3---3-3-3----------------------|
D|-------------------------------------------------------------------------|

"Looking back..."
e|-0---------------0-------0-----------------------------------------------|
B|-1-------3-------1-------1-----------------------------------------------|
G|-2-------0-------0-------2-----------------------------------------------|
D|-2-------0-------2-------3-----------------------------------------------|
A|-0-------2-------3-------3-----------------------------------------------|
D|-------------------------------------------------------------------------|

"I will be waiting for you..."
e|-3------3--3--3--3---------0-0----0-0-0-0--------------------------------|
B|-0------0--0--0--0---------1-1----1-1-1-1--------------------------------|
G|-0------0--0--0--0---------2-2----2-2-2-2--------------------------------|
D|-0------0--0--0--0---------2-2----3-3-3-3--------------------------------|
A|-2------2--2--2--2---------0-0----3-3-3-3--------------------------------|
D|-------------------------------------------------------------------------|

e|-3------3--3--3--3---------0-0----0-0-0-0--------------------------------|
B|-0------0--0--0--0---------1-1----1-1-1-1--------------------------------|
G|-0------0--0--0--0---------2-2----2-2-2-2--------------------------------|
D|-0------0--0--0--0---------2-2----3-3-3-3--------------------------------|
A|-2------2--2--2--2---------0-0----3-3-3-3--------------------------------|
D|-------------------------------------------------------------------------|

e|-3------3--3--3--3---------0-0----0-0-0-0--------3-3-3-3-3-3-3-3---------|
B|-0------0--0--0--0---------1-1----1-1-1-1--------0-0-0-0-0-0-0-0---------|
G|-0------0--0--0--0---------2-2----2-2-2-2--------0-0-0-0-0-0-0-0---------|
D|-0------0--0--0--0---------2-2----3-3-3-3--------0-0-0-0-0-0-0-0---------|
A|-2------2--2--2--2---------0-0----3-3-3-3--------2-2-2-2-2-2-2-2---------|
D|-------------------------------------------------------------------------|

e|-------------------------------------------------------------------------|
B|-9--9-9-9-9---9-9-9-9-9--------------------------------------------------|
G|-9--9-9-9-9---9-9-9-9-9--------------------------------------------------|
D|-9--9-9-9-9---9-9-9-9-9--------------------------------------------------|
A|-7--7-7-7-7---7-7-7-7-7--------------------------------------------------|
D|-------------------------------------------------------------------------|

Verse 2:
e|-0--0-0-0--0-0-0---0---0-0-0----0---0-0-0----0---0-0-0-------------------|
B|-1--1-1-1--1-1-1---1---1-1-1----1---1-1-1----1---1-1-1-------------------|
G|-0--0-0-0--0-0-0---0---0-0-0----0---0-0-0----2---2-2-2-------------------|
D|-2--2-2-2--2-2-2---3---3-3-3----2---2-2-2----0---0-0-0-------------------|
A|-0--0-0-0--0-0-0---0---0-0-0----3---3-3-3----0---0-0-0-------------------|
D|-------------------------------------------------------------------------|


e|-0---0-0-0-0-0----0---0-0-0------0---------------------------------------|
B|-1---1-1-1-1-1----1---1-1-1------1---------------------------------------|
G|-2---2-2-2-2-2----0---0-0-0------2---------------------------------------|
D|-2---2-2-2-2-2----2---2-2-2------3---------------------------------------|
A|-0---0-0-0-0-0----3---3-3-3------3---------------------------------------|
D|-------------------------------------------------------------------------|

e|-0-0--0-0--0-0--0-0-0-----0----0-0-0----0-0-0-0-0-0----------------------|
B|-1-1--1-1--1-1--1-1-1-----1----1-1-1----1-1-1-1-1-1----------------------|
G|-0-0--0-0--0-0--0-0-0-----0----0-0-0----2-2-2-2-2-2----------------------|
D|-2-2--2-2--2-3--3-3-3-----2----2-2-2----0-0-0-0-0-0----------------------|
A|-0-0--0-0--0-0--0-0-0-----3----3-3-3----0-0-0-0-0-0----------------------|
D|-------------------------------------------------------------------------|

e|-0-0-0-0---0-0-0-0---0-0-0-0--0---0-0-0---0---0-0-0----------------------|
B|-1-1-1-1---1-1-1-1---1-1-1-1--1---0-0-0---1---0-0-0----------------------|
G|-2-2-2-2---0-0-0-0---2-2-2-2--2---2-2-2---2---2-2-2----------------------|
D|-2-2-2-2---2-2-2-2---3-3-3-3--3---3-3-3---3---3-3-3----------------------|
A|-0-0-0-0---3-3-3-3---3-3-3-3--3---3-3-3---3---3-3-3----------------------|
D|-------------------------------------------------------------------------|

"Looking back..."
e|-0---0-0-0-0------------------0--0-0-0----0--0-0-0-----------------------|
B|-1---1-1-1-1---3---3-3-3-3----1--1-1-1----1--1-1-1-----------------------|
G|-2---2-2-2-2---0---0-0-0-0----0--0-0-0----2--2-2-2-----------------------|
D|-2---2-2-2-2---0---0-0-0-0----2--2-2-0----3--3-3-3-----------------------|
A|-0---0-0-0-0---2---2-2-2-2----3--3-3-3----3--3-3-3-----------------------|
D|-------------------------------------------------------------------------|

"I will be waiting for you..."
e|-3------3--3--3--3---------0-0----0-0-0-0--------------------------------|
B|-0------0--0--0--0---------1-1----1-1-1-1--------------------------------|
G|-0------0--0--0--0---------2-2----2-2-2-2--------------------------------|
D|-0------0--0--0--0---------2-2----3-3-3-3--------------------------------|
A|-2------2--2--2--2---------0-0----3-3-3-3--------------------------------|
D|-------------------------------------------------------------------------|

e|-3------3--3--3--3---------0-0----0-0-0-0--------------------------------|
B|-0------0--0--0--0---------1-1----1-1-1-1--------------------------------|
G|-0------0--0--0--0---------2-2----2-2-2-2--------------------------------|
D|-0------0--0--0--0---------2-2----3-3-3-3--------------------------------|
A|-2------2--2--2--2---------0-0----3-3-3-3--------------------------------|
D|-------------------------------------------------------------------------|

e|-3------3--3--3--3---------0-0----0-0-0-0--------3-3-3-3-3-3-3-3---------|
B|-0------0--0--0--0---------1-1----1-1-1-1--------0-0-0-0-0-0-0-0---------|
G|-0------0--0--0--0---------2-2----2-2-2-2--------0-0-0-0-0-0-0-0---------|
D|-0------0--0--0--0---------2-2----3-3-3-3--------0-0-0-0-0-0-0-0---------|
A|-2------2--2--2--2---------0-0----3-3-3-3--------2-2-2-2-2-2-2-2---------|
D|-------------------------------------------------------------------------|

e|------------|
B|-9--9-9-9-9-|
G|-9--9-9-9-9-|
D|-9--9-9-9-9-|
A|-7--7-7-7-7-|
D|------------|


Then (with distortion):

e|-------------------------------------------------------------------------|
B|-------------------------------------------------------------------------|
G|-14-14-14-----11--11-11-11-11-11---------14-14-14----7--7--7--7--7--7----|
D|--x--x--x------x---x--x--x--x--x----------x--x--x----x--x--x--x--x--x----|
A|-12-12-12------9---9--9--9--9--9---------12-12-12----5--5--5--5--5--5----|
D|-------------------------------------------------------------------------|

Repeat above throughout "have you found your way" section, then play:

e|-------------------------------------------------------------------------|
B|-------------------------------------------------------------------------|
G|------14--------------14------------14------------------14---------------|
D|-0h12----12-----11h12----12------14----14----------0h12----12------------|
A|-------------------------------------------------------------------------|
D|-------------------------------------------------------------------------|

e|-------------------------------------------------------------------------|
B|-----------------------------12------------------------------------------|
G|-------14--------------11h12-----------14--------------14----------14----|
D|-11h12----12------0h12------------0h12----12-----11h12----12----14----14-|
A|-------------------------------------------------------------------------|
D|-------------------------------------------------------------------------|

e|-----------------------------------------------------------------------|
B|----------------------------------------14-----------------------------|
G|------14-------------14-----------11h12--------------------------------|
D|-0h12----12----11h12----12---0h11--------------------------------------|
A|-----------------------------------------------------------------------|
D|-----------------------------------------------------------------------|x2

e|-----------------------|
B|-----------------------|
G|-(12)-----------(12)---|
D|------(12)--0----------|
A|-----------------------|
D|-----------------------|

The next thing Simon plays is:

e|-----------------------------------------------------------------------|
B|-----------------------------------------------------------------------|
G|-6-6-6-6---6-6-6-6---7-----6-6-6-6---6-6-6-6---7-----------------------|
D|-x-x-x-x---x-x-x-x---5-----x-x-x-x---x-x-x-x---5-----------------------|
A|-4-4-4-4---4-4-4-4---5-----4-4-4-4---4-4-4-4---5-----------------------|
D|---------------------5-------------------------5-----------------------|x2

This is then repeated:
e|-------------------------------------------------------------------------|
B|-------------------------------------------------------------------------|
G|------11-9-11-----------11-9-11-----------11-9-11-----------11-9-11------|
D|-0h12---------12---0h12---------12---0h12---------12---0h12---------12---|
A|-------------------------------------------------------------------------|
D|-------------------------------------------------------------------------|

Then play:
e|-----------------------------------------------------------------------|
B|-----------------------------------------------------------------------|
G|-6-6-6-6---6-6-6-6---7-----6-6-6-6---6-6-6-6---7-----------------------|
D|-x-x-x-x---x-x-x-x---5-----x-x-x-x---x-x-x-x---5-----------------------|
A|-4-4-4-4---4-4-4-4---5-----4-4-4-4---4-4-4-4---5-----------------------|
D|---------------------5-------------------------5-----------------------|x2

"All the way down" section (with distortion):
e|--------------------|
B|--------------------|
G|-7--------7---------|
D|-0-(x24)--5-(x24)---|
A|-0--------5---------|
D|-0--------5---------|

Then (x4):
e|-------------------------------------------------------------------------|
B|-------------------------------------------------------------------------|
G|-6-6-6-6---6-6-6-6----6---6---6---6---6---6---6b---6b---6b---6b---6---6--|
D|-x-x-x-x---x-x-x-x-------------------------------------------------------|
A|-4-4-4-4---4-4-4-4-------------------------------------------------------|
D|-------------------------------------------------------------------------|

Then repeat "All the way down" section

Outro:
e|-------------------------------------------------------------------------|
B|-------------------------------------------------------------------------|
G|-7-7-7-7-7-7-7-7-7-7--12-12-12---11---7-7-7-7-7-7-7-7-7-7----------------|
D|-0-0-0-0-0-0-0-0-0-0---x--x--x----x---5-5-5-5-5-5-5-5-5-5----------------|
A|-0-0-0-0-0-0-0-0-0-0--10-10-10----9---5-5-5-5-5-5-5-5-5-5----------------|
D|-0-0-0-0-0-0-0-0-0-0------------------5-5-5-5-5-5-5-5-5-5----------------|

e|-------------------------------------------------------------------------|
B|-------------------------------------------------------------------------|
G|-11--11---9--7-7-7-7-7-7-7-7-7-7---12-12-12---11--7-7-7-7-7-7-7-7-7-7----|
D|--x---x---x--0-0-0-0-0-0-0-0-0-0----x--x--x----x--5-5-5-5-5-5-5-5-5-5----|
A|--9---9---7--0-0-0-0-0-0-0-0-0-0---10-10-10----9--5-5-5-5-5-5-5-5-5-5----|
D|-------------0-0-0-0-0-0-0-0-0-0------------------5-5-5-5-5-5-5-5-5-5----|

e|-------------------------------------------------------------------------|
B|-------------------------------------------------------------------------|
G|-9-9-9---7---9--11----7-----------7-----------7------------7-------------|
D|-x-x-x---x---x---x----0-----------5-----------0------------5-------------|
A|-7-7-7---5---7---9----0-----------5-----------0------------5-------------|
D|----------------------0-----------5-----------0------------5-------------|

THATS IT, GREAT SONG

ENJOY!
comments
print report bad tab
8 comments total. Showing first comments.
+1 reply
Mr E wrote on January 1 2008, 09:02 am

Awesome tab! Just 1 flaw I think I've noticed so far. In the ''Looking back'' bit the second chord sounds better if you
play

e|----
B|--3--
G|--0--
D|--0--
A|--2--
E|----

+1 reply
frusciante_50 wrote on January 1 2008, 10:28 am

Thats actually what I meant to put, thanks very much for pointing that out

0 reply
Mr E wrote on January 26 2008, 12:48 pm

Sorry another correction!!
For the "Then (with distortion):" bit, I think playing this sounds
better.

e|-------------------------------------
B|-------------------------------------
G|-14---11-9-7-----14---7-6
-4----------
D|-x----x--x-x-----x----x-x-x----------
A|-12---9--9-9-----12---5-5-5----------
D|----------------------
---------------

These are just the chords played, obviously not the rhythm!

I want to post or [tab]
guest
You may want to rate the tab now too:
select rating
Please do not post tabs as comments. Select "correction" instead!