Oops, an error
Loading. Please wait.

Asexual Meat Kitchen Bass Tab

version 1
version 1

Whole song

Interactive

343 views 1 this week
no commentswrite comment
1 2 3 4 5
please rate
add to favorites
launch autoscroll
font size
0
reset
guitar tuner
Autoscroll
slow
fast
+/-
esc
set tempo
stop
Help us to improve Ultimate-Guitar.com Take our survey!
×
Contributor
-------------------------------------------------------------------------------
			     Asexual Meat Kitchen - Biffy Clyro
-------------------------------------------------------------------------------

Tabbed By :Euan o.b.m

Tuning: dadg

Great song on new album,"Puzzle", coming out soon. Its on the Myspace, enjoy. Remember drop to D!

Intro-odd rythm
G|------------------------|
D|------------------------|
A|------------------------|
D|-333-333-33-333-333-33--|

Main riff
G|--------------------------------------------------------------------------------------|
D|--------------------------------------------------------------------------------------|
A|-121212999121212999121299-121212999121212999121299-111111------111111-------1111------|
D|---------------------------------------------------------141414------141414-----1414--|

G|-----------------------------------|
D|-----------------------------------|
A|-111111------111111------1111------|
D|-------141414------141414----1414--|

Beggining of verse, "I loved my...." play bottom notes of guitar
G|----------------------------------------------|
D|----------------------------------------------|
A|----------------------------------------------|
D|-444-444-44-444-444-44-222-222-22-222-222-22--|

Main riffx1

Chorus
G|---------------------|
D|---------------------|
A|----------5------x2--|
D|-77788-00--55566-----|

Next bit, "my lonely....
G|---------------------------------------|
D|---------------------------------------|
A|-----------------------------------x2--|
D|-3333333333333333-7777777777777777-----|

" what has or because.....
G|---------------------------------------------------------------------|
D|---------------------------------------------------------------------|
A|---------------------------------------------------------------------|
D|-6666666666666666-8888888888888888-66666666555555558888888888888888--|

Beggining of verse
main riff

Chorus:
G|-----------------------------------------|
D|-----------------------------------------|
A|--------------------5----------------x2--|
D|-7777777788888888-00-555555566666666-----|

bit after chorus
then " what has or because.....

Bridge "I wish I had a submarine
G|----------------------------------------------------------------|
D|----------------------------------------------------------------|
A|---------33335555--------33335555--------------------3333---x4--|
D|-55555555--------55555555--------22222222000022222222-----------|

G|--------------------------------------------|
D|--------------------------------------------|
A|---------------------3333-------------------|
D|-22222222000022222222-----2222222200000000--|

Main riff

then
G|-------------------------------------------------------------------------------------|
D|-------------------------------------------------------------------------------------|
A|-12-12-12-12-------------------------------------------------------------------------|
D|---2--2--2--2------------------------------------------------------------------------|


| /  slide up
| \  slide down
| h  hammer-on
| p  pull-off
| ~  vibrato
| +  harmonic
| x  Mute note
===============================================================================
comments
We did not receive enough feedback on this tab! Please rate:
print report bad tab
1 2 3 4 5
I want to post or [tab]
guest
You may want to rate the tab now too:
select rating
Please do not post tabs as comments. Select "correction" instead!