Oops, an error
Loading. Please wait.

Biblical Tab

version 1
version 1

Acoustic

Whole song

Interactive

9,940 views 66 this week
3 commentsread comments
1 2 3 4 5
x 8
add to favorites
launch autoscroll
font size
0
reset
how to read this tab
guitar tuner
Autoscroll
slow
fast
+/-
esc
set tempo
stop
Help us to improve Ultimate-Guitar.com Take our survey!
×
Author
Difficulty
novice
Acoustic version played on a scottish radio, the video is on youtube.
I think that the tabs are 99% accurate. Hope you like it!

Intro  x2

e|-3-------3--3------2-----2h3--------|
B|-3-------3----3------3--------------|
G|-0-------0------0------0------------|
D|-0-------2--------------------------|
A|-2-------3--------------------------|
E|-3----------------------------------|

Verse

e|-----------------------------------------------------|
B|-8----8----8---10p8------10p8------10p8------8-------|
G|-7----9----9--------9---------9---------9------------|  x2
D|-9----9----10---------10--------10--------10---------|
A|-----------------------------------------------------|
E|-----------------------------------------------------|

Pre-chorus

e|--0----0----2----0----0----3----2--3--2--------------|
B|--1----0----3----1----1----3----3--3--3--------------|
G|--2----0----2----2----0----0----2--2--2--------------|
D|--2----2----0----2----2----0----0--0--0--------------|
A|--0----2---------0----3----2-------------------------|
E|-------0-------------------3-------------------------|

Chorus

e|--3---3---3---3---3---3---3--------------------------|
B|--3---3---3---3---3---3---3--------------------------|
G|--0---0---0---0---0---2---0--------------------------|
D|--2---0---0---2---2---0---2--------------------------|
A|--3---2---2---2---3-------2--------------------------|
E|----------3---0-----------0--------------------------|

e|--3---3---3---3---3---3---3--3------------------------|
B|--3---3---3---3---3---3---3--3------------------------|
G|--0---0---0---0---0---2---0--2------------------------|
D|--2---0---0---2---2---0---2--0------------------------|
A|--3---2---2---2---3-------2--0------------------------|
E|----------3---0-----------0--2------------------------|

e|--3---3---3---2---------------------------------------|
B|--3---3---3---3---------------------------------------|
G|--0---0---0---2---------------------------------------|
D|--0---2---2---0---------------------------------------|
A|--2---3---2-------------------------------------------|
E|--3-------0-------------------------------------------|

Verse

e|-----------------------------------------------------|
B|-8----8----8---10p8------10p8------10p8------8-------|
G|-7----9----9--------9---------9---------9------------|  x2
D|-9----9----10---------10--------10--------10---------|
A|-----------------------------------------------------|
E|-----------------------------------------------------|

Pre-chorus

e|--0----0----2----0----0----3----2--3--2--------------|
B|--1----0----3----1----1----3----3--3--3--------------|
G|--2----0----2----2----0----0----2--2--2--------------|
D|--2----2----0----2----2----0----0--0--0--------------|
A|--0----2---------0----3----2-------------------------|
E|-------0-------------------3-------------------------|

Chorus

e|--3---3---3---3---3---3---3--------------------------|
B|--3---3---3---3---3---3---3--------------------------|
G|--0---0---0---0---0---2---0--------------------------|
D|--2---0---0---2---2---0---2--------------------------|
A|--3---2---2---2---3-------2--------------------------|
E|----------3---0-----------0--------------------------|

e|--3---3---3---3---3---3---3--3------------------------|
B|--3---3---3---3---3---3---3--3------------------------|
G|--0---0---0---0---0---2---0--2------------------------|
D|--2---0---0---2---2---0---2--0------------------------|
A|--3---2---2---2---3-------2--0------------------------|
E|----------3---0-----------0--2------------------------|

e|--3---3---3---2---------------------------------------|
B|--3---3---3---3---------------------------------------|
G|--0---0---0---2---------------------------------------|  x2
D|--0---2---2---0---------------------------------------|
A|--2---3---2-------------------------------------------|
E|--3-------0-------------------------------------------|

Bridge

e|------------|    |-------------------------------------   |
B|-8---10--12-|    |-8---10--13--12----------------------   |
G|-x---x---x--| x3 |-x---x---x---x-----------------------   |
D|-5---7---9--|    |-5---7---10--9-----------------------   |
A|------------|    |-------------------------------------   |
E|------------|    |-------------------------------------   |
                                                            |  x2
                                                            |
e|------------|    |-------------------------------------   |
B|-8---10--12-|    |-7---8---10----10--12-13--12---------   |
G|-x---x---x--| x2 |-x---x---x-----x---x--x---x----------   |
D|-5---7---9--|    |-4---5---7-----7---9--10--9----------   |
A|------------|    |-------------------------------------   |
E|------------|    |-------------------------------------   |

No guitar in the end but you can play the intro chords, G and C
Suggest correction
comments
print report bad tab
3 comments total.
0 reply
kajala 10 Jul 17, 2014 07:26 AM

Is this in standard or drop d tuning?

Thanks for soing this x

0 reply
pakopako 788 Jul 17, 2014 07:28 AM

Standard tuning ;)

0 reply
kajala 10 Jul 23, 2014 06:10 AM

Thank you :3

guest
You may want to rate the tab now too:
select rating
Wanna post a correction for this tab? Suggest correction