Oops, an error
Loading. Please wait.

Biblical Tab

version 2
version 2

Whole song

Interactive

10,930 views 63 this week
2 commentsread comments
1 2 3 4 5
x 12
add to favorites
launch autoscroll
font size
0
reset
how to read this tab
guitar tuner
Autoscroll
slow
fast
+/-
esc
set tempo
stop
Help us to improve Ultimate-Guitar.com Take our survey!
×
Author
Difficulty
Tuning
intermediate
C# G# C# F# A# D#
Tuning : C# G# C# F# A# D#

[Intro]
"baby if you could"
D#|---------|
A#|-5--5--6-|
F#|-5--5--5-|
C#|-x--x--3-|
G#|-3--0--x-|
C#|---------|

[Verse]
(part one)
"play another song here"
  pm . . . . . . . . . . . . . . . . . .
D#|------------------------------------|
A#|-555555555555555555-6666666666666666|
F#|-555555555555555555-5555555555555555|   (x2)
C#|------------------------------------|
G#|------------------------------------|
C#|------------------------------------|

(little pull off bit)
D#|--3p0----------0-3----|
A#|------6----x3---------|
F#|--------5-------------|
C#|----------------------|
G#|----------------------|
C#|----------------------|

[Pre-chorus]
  "maybe there's an undertow here"
                                                           (slowly bend)
D#|-------------------------------------------------------------------------|
A#|--66666666-55555555-88888888-66666666-66666666-55555555------------------|
F#|--77777777-55555555-77777777-77777777-55555555-55555555-7777777777777777-|
C#|--------------------------------------------------------5555555555555555-|
G#|-------------------------------------------------------------------------|
C#|-------------------------------------------------------------------------|

[Chorus]
"you gave me magical"
D#|-------------------------------------------------------------------------|
A#|--------------------1111111-------------------333333333------------------|
F#|--------------------0000000-222222222---------000000000-2222222222222222-|
C#|--3333333-222222222-2222222-222222222-3333333-xxxxxxxxx-2222222222222222-|
G#|--3333333-333333333-3333333-000000000-3333333-555555555-0000000000000000-|
C#|--3333333-222222222-------------------3333333-555555555------------------|

D#|--------------------------------------------------------------------------|
A#|--------------------1111111-------------------333333333-------------------|
F#|--------------------0000000-222222222---------000000000-2222222-444444444-|
C#|--3333333-222222222-2222222-222222222-3333333-xxxxxxxxx-2222222-444444444-|
G#|--3333333-333333333-3333333-000000000-3333333-555555555-0000000-222222222-|
C#|--3333333-222222222-------------------3333333-555555555-------------------|

[Post Chorus]
D#|---------------------------------------------------------|
A#|---------------------------------------------------------|
F#|--5----------5----------2--------------------------------|
C#|--5-x16------3-x16------2-x16------5---------------------|
G#|--3---------------------0----------5-x16-----------------|
C#|-----------------------------------5---------------------|

[Verse]
(part one)
"play another song here"
  pm . . . . . . . . . . . . . . . . . .
D#|------------------------------------|
A#|-555555555555555555-6666666666666666|
F#|-555555555555555555-5555555555555555|   (x2)
C#|------------------------------------|
G#|------------------------------------|
C#|------------------------------------|

(little pull off bit)
D#|--3p0----------0-3----|
A#|------6----x3---------|
F#|--------5-------------|
C#|----------------------|
G#|----------------------|
C#|----------------------|

[Pre-chorus]
  "maybe there's an undertow here"
                                                           (slowly bend)
D#|-------------------------------------------------------------------------|
A#|--66666666-55555555-88888888-66666666-66666666-55555555------------------|
F#|--77777777-55555555-77777777-77777777-55555555-55555555-7777777777777777-|
C#|--------------------------------------------------------5555555555555555-|
G#|-------------------------------------------------------------------------|
C#|-------------------------------------------------------------------------|

[Chorus]
"you gave me magical"
D#|-------------------------------------------------------------------------|
A#|--------------------1111111-------------------333333333------------------|
F#|--------------------0000000-222222222---------000000000-2222222222222222-|
C#|--3333333-222222222-2222222-222222222-3333333-xxxxxxxxx-2222222222222222-|
G#|--3333333-333333333-3333333-000000000-3333333-555555555-0000000000000000-|
C#|--3333333-222222222-------------------3333333-555555555------------------|

D#|--------------------------------------------------------------------------|
A#|--------------------1111111-------------------333333333-------------------|
F#|--------------------0000000-222222222---------000000000-2222222-444444444-|
C#|--3333333-222222222-2222222-222222222-3333333-xxxxxxxxx-2222222-444444444-|
G#|--3333333-333333333-3333333-000000000-3333333-555555555-0000000-222222222-|
C#|--3333333-222222222-------------------3333333-555555555-------------------|

[Post Chorus]
D#|---------------------------------------------------------|
A#|---------------------------------------------------------|
F#|--5----------5----------2--------------------------------|
C#|--5-x16------3-x16------2-x16------5---------------------|
G#|--3---------------------0----------5-x16-----------------|
C#|-----------------------------------5---------------------|

[Bridge]
(with post chorus playing underneath) (x2)
D#|-------------------------------------------------------------------------|
A#|-------------------------------------------------------------------------|
F#|--5555555-7-9-x6--4444444-5-7--7777777-9-10-9----------------------------|
C#|-------------------------------------------------------------------------|
G#|-------------------------------------------------------------------------|
C#|-------------------------------------------------------------------------|

[Outro]
(same as intro)
D#|---------|
A#|-5-----6-|
F#|-5-----5-|
C#|-x-----3-|
G#|-3--0--x-|
C#|---------|


************************************

| x  Dead note
| .  Staccato
| p  Pull-off

************************************
Suggest correction
comments
print report bad tab
2 comments total.
+2 reply
Deltast0rm 30 Oct 19, 2014 07:20 PM

I had the little verse riff bit worked out as:


|--3p0-----3p0---3p0---0-1----|
|------5------5-----5---------|
|--------5-----5-----5--------|
|-----------------------------|
|-----------------------------|

+1 reply
AiliB 10 Nov 13, 2014 02:41 PM

Compromise? I like this for the little riff:

|--3p0-----------0-----|
|------6----x3-----6---|
|--------5-------------|
|----------------------|
|----------------------|

guest
You may want to rate the tab now too:
select rating
Wanna post a correction for this tab? Suggest correction