Oops, an error
Loading. Please wait.

Biblical Tab

version 2
version 2

Whole song

Interactive

8,434 views 39 this week
2 commentsread comments
1 2 3 4 5
excellent!
x 9
add to favorites
launch autoscroll
font size
0
reset
how to read this tab
guitar tuner
Tab Pro tools
  • play this tab
  • loop segment
  • change instrument
  • show fretboard
  • metronome
×
Best way to learn
"Biblical"
Autoscroll
slow
fast
+/-
esc
set tempo
stop
Contributor
Difficulty
Tuning
intermediate
C# G# C# F# A# D#
Brilliant song by a brilliant band, haven't found many accurate tabs on here so 
I've went off what I've learned by ear/watching live performances.

Tuning : C# G# C# F# A# D#

Intro-

"baby if you could"

|---------|
|-5--5--6-|
|-5--5--5-|
|-x--x--3-|
|-3--0--x-|
|---------|

Verse - (part one)

"play another song here"

pm . . . . . . . . . . . . . . . . . .
|------------------------------------|
|-555555555555555555-6666666666666666|
|-555555555555555555-5555555555555555|   x2
|------------------------------------|
|------------------------------------|
|------------------------------------|

(little pull off bit)

|--3p0----------0-3----|
|------6----x3---------|
|--------5-------------|
|----------------------|
|----------------------|

Prechorus - 

"maybe there's an undertow here"
                                                         (slowly bend)
|-------------------------------------------------------------------------|
|--66666666-55555555-88888888-66666666-66666666-55555555------------------|
|--77777777-55555555-77777777-77777777-55555555-55555555-7777777777777777-|
|--------------------------------------------------------5555555555555555-|
|-------------------------------------------------------------------------|
|-------------------------------------------------------------------------|


Chorus

"you gave me magical"

|-------------------------------------------------------------------------|
|--------------------1111111-------------------333333333------------------|
|--------------------0000000-222222222---------000000000-2222222222222222-|
|--3333333-222222222-2222222-222222222-3333333-xxxxxxxxx-2222222222222222-|
|--3333333-333333333-3333333-000000000-3333333-555555555-0000000000000000-|
|--3333333-222222222-------------------3333333-555555555------------------|

|--------------------------------------------------------------------------|
|--------------------1111111-------------------333333333-------------------|
|--------------------0000000-222222222---------000000000-2222222-444444444-|
|--3333333-222222222-2222222-222222222-3333333-xxxxxxxxx-2222222-444444444-|
|--3333333-333333333-3333333-000000000-3333333-555555555-0000000-222222222-|
|--3333333-222222222-------------------3333333-555555555-------------------|

Post Chorus

|---------------------------------------------------------|
|---------------------------------------------------------|
|--5----------5----------2--------------------------------|
|--5-x16------3-x16------2-x16------5---------------------|
|--3---------------------0----------5-x16-----------------|
|-----------------------------------5---------------------|

Verse x1

Prechorus x1

Chorus x1

Post Chorus x2

Bridge - (with post chorus playing underneath) x2

|-------------------------------------------------------------------------|
|-------------------------------------------------------------------------|
|--5555555-7-9-x6--4444444-5-7--7777777-9-10-9----------------------------|
|-------------------------------------------------------------------------|
|-------------------------------------------------------------------------|
|-------------------------------------------------------------------------|

Outro (same as intro)

|---------|
|-5-----6-|
|-5-----5-|
|-x-----3-|
|-3--0--x-|
|---------|
comments
print report bad tab
2 comments total.
+2 reply
Deltast0rm wrote on October 19 2014, 07:20 pm

I had the little verse riff bit worked out as:


|--3p0-----3p0---3p0---0-1----|
|------5------5-----5---------|
|--------5-----5-----5--------|
|-----------------------------|
|-----------------------------|

+1 reply
AiliB wrote on November 13 2014, 02:41 pm

Compromise? I like this for the little riff:

|--3p0-----------0-----|
|------6----x3-----6---|
|--------5-------------|
|----------------------|
|----------------------|

I want to post or [tab]
guest
You may want to rate the tab now too:
select rating
Please do not post tabs as comments. Select "correction" instead!