Oops, an error
Loading. Please wait.

Black Chandelier Bass Tab

version 1
version 1

Whole song

Interactive

8,479 views 12 this week
3 commentsread comments
1 2 3 4 5
accurate
x 7
add to favorites
launch autoscroll
font size
0
reset
guitar tuner
Tab Pro tools
  • play this tab
  • loop segment
  • change instrument
  • show fretboard
  • metronome
×
Best way to learn
"Black Chandelier"
Autoscroll
slow
fast
+/-
esc
set tempo
stop
Contributor
Tuning
C# G# C# F# A# D#
-------------------------------------------------------------------------------
                             Black Chandelier - Biffy Clyro
-------------------------------------------------------------------------------
Tabbed by: JB


Tuning: C# G# C# F# (Drop D half Step down)


    Intro - "Drip x10" wait for (00:08)

F#|---------------------------------------------------------------------------|
C#|---------------------------------------------------------------------------|
G#|-8-8-8-8-8-8-8-8-8-8-8-8-8-8-8-8-8-8-8-8-8-8-8-8-8-8-8-8-8-8-8-------------|
C#|---------------------------------------------------------------------------|
    1 + 2 + 3 + 4 + .....
    
    Verse
F#|---------------------------------------------------------------------------|
C#|---------------------------------------------------------------------------|
G#|-7-7-7-0-0-0-0-2-2-2-3-3-3s-8-8-8-8-8-8-8-8-8-8-8-8-8-8-8-8----------------| Play this 4 times
C#|---------------------------------------------------------------------------|

    Pre-Chorus ("You left my heart")
F#|---------------------------------------------|
C#|---------------------------------------------|
G#|-12-12-12-12-12-12-12-11-11-11-11-11-11-11-11|
C#|---------------------------------------------| 


F#|------------------------------------------------------|
C#|------------------------------------------------------|
G#|-10-10-10-10-10-10-10-9-9-9-9-9-9-9-9-8-8-8-8-8-8-8-8-|
C#|------------------------------------------------------|
                              
                             Chorus ("We're gonna seperate")
F#|------------------------------------------------------------------------------------------|
C#|------------------------------------------------------------------------------------------|
G#|-10-10-10-10-10-10-10-10s-7-7-7-3-3-3-3-3-3-3-3-3-3-3-3-7-7-7-0-0-0-0-0-0-0-0-0-0-0-0-0-0-|
C#|------------------------------------------------------------------------------------------|

F#|----------------------------------------------------------------------------------------------|
C#|----------------------------------------------------------------------------------------------|
G#|-10-10-10-8-8-8-8-8-8-8-8-8-8-8-8-10-10-10-12-12-12-12-12-12-12-12-12-12-12-12-12-12-10-10-10-| 
C#|----------------------------------------------------------------------------------------------|

BACK TO INTRO. THEN VERSE, THEN PRE-CHORUS, THEN CHORUS, CHORUS AGAIN...

  BRIDGE
F#|---------------------------------------------------------------------------|
C#|---------------------------------------------------------------------------|
G#|---------------------------------------------------------------------------|
C#|-0-0-0h12-0-0-0-0h12-0-0-0-0h12-0-0-0-x------------------------------------| Play this 5 times



PRE CHORUS- PLAY NOTHING. CHORUS........FINISH ON AN OPEN LOW C#

| /  slide up
| \  slide down
| h  hammer-on
| p  pull-off
| ~  vibrato
| +  harmonic
| x  Mute note
===============================================================================
comments
print report bad tab
3 comments total.
0 reply
mylo_j wrote on February 28 2013, 07:17 am

Do you have a tab for standard tuning? or does it have to be played in Drop D? Im fairly new to bass and dont want to be mesasing around with my bass :) would rather just play :) if you dont its fine :)thanks

0 reply
sexymachine94 wrote on June 3 2013, 03:19 pm

It's not very good :/ I have a better version, if you want :)

0 reply
Robert2511 wrote on October 15 2014, 03:31 pm

On the bridge is it 12s or 1 and 2s?

I want to post or [tab]
guest
You may want to rate the tab now too:
select rating
Please do not post tabs as comments. Select "correction" instead!